Guitar Tabs, Chords and Lyrics


Buried Myself Alive    Used



Dropped D

Intro/ Chorus:

|----------------- |------------------|----------------- |------------------------
|----------------- |------------------|----------------- |------------------------
|----------------- |------------------|----------------- |-11-11-11-11-11-11-11-11
|-5-5-5-5-5-5-5-5- |-5-5-5-5-5-5-5-5- |-5-5-5-5-5-5-5-5- |--x--x--x--x--x--x--x--x
|-5-5-5-5-5-5-5-5- |-5-5-5-5-5-5-5-5- |-5-5-5-5-5-5-5-5- |--9--9--9--9--9--9--9--9
|-5-5-5-5-5-5-5-5- |-5-5-5-5-5-5-5-5- |-5-5-5-5-5-5-5-5- |------------------------

|----------------- |----------------- |----------------- |------------------------
|----------------- |----------------- |----------------- |------------------------
|----------------- |----------------- |----------------- |------------------------
|-2-2-2-2-2-2-2-2- |-2-2-2-2-2-2-2-2- |-2-2-2-2-2-2-2-2- |-2-2-2-2-2-2-2-2--------
|-2-2-2-2-2-2-2-2- |-2-2-2-2-2-2-2-2- |-2-2-2-2-2-2-2-2- |-2-2-2-2-2-2-2-2--------
|-2-2-2-2-2-2-2-2- |-2-2-2-2-2-2-2-2- |-2-2-2-2-2-2-2-2- |-2-2-2-2-2-2-2-2--------

|----------------- |----------------- |----------------- |------------------------
|----------------- |----------------- |----------------- |------------------------
|-5-5-5-5-5-5-5-5- |-5-5-5-5-5-5-5-5- |-7-7-7-7-7-7-7-7- |-7-7-7-7-7-7-7-7--------
|-5-5-5-5-5-5-5-5- |-5-5-5-5-5-5-5-5- |-7-7-7-7-7-7-7-7- |-7-7-7-7-7-7-7-7--------
|-3-3-3-3-3-3-3-3- |-3-3-3-3-3-3-3-3- |-5-5-5-5-5-5-5-5- |-5-5-5-5-5-5-5-5--------
|----------------- |----------------- |----------------- |------------------------


Verse:

|------------------------------------------------------ |----------------------
|------------------------------------------------------ |----------------------
|--------7(19)----------------------------------------- |----------------------
|-5(17)---------5(17)--0(12)--5(17)--0(12)--5(17)--7(19)|-5(17)--0(12)--5(17)--
|------------------------------------------------------ |----------------------
|------------------------------------------------------ |----------------------
   T      T       T      T     T       T      T      T       T     T      T

|--------------------------------- |
|--------------------------------- |
|--------------------------------- |
|-0(12)--5(17)--7(19)--5(17)--0(12)|  16X
|--------------------------------- |
|--------------------------------- |
   T       T      T     T     T

Breakdown:

|-------|-------|-------|-------|
|-------|-------|-------|-------|
|--9----|--7----|--5----|--5----|  2x
|--9----|--7----|--5----|--5----|
|--7----|--5----|--3----|--3----|
|-------|-------|-------|-------|


|-------|-------------|
|-------|-------------|
|--5----|--12--12---- |
|--5----|---x---x---- |
|--3----|--10--10---- |
|-------|-------------|

INTERLUDE:

g5:                            A5:                      F#5:
|--------------------|         |-------------------|   |----------|
|--------------------|         |-------------------|   |----------|
|--12---12-12---12-  |         |--14---14-14---14- |   |--12--11--|
|---x----x--x----x-  |         |---x----x--x----x--|   |---x---x--|
|--10---10-10---10-  |         |--12---12-12---12- |   |--10---9--|
|--------------------|         |-------------------|   |----------|

it goes
g5: x6
A5: x1
G5: x7
A5: x1
G5: x1
F#5: x1

Part 2:

   E5VII          f#5               G5:
|-----------------------------------------------------------------------
|-----------------------------------------------------------------------
|--9-9-9-9-9-9--|-11-11-11-11-11-11-- |--12-12-12-12-12-12-12-12-12-12--
|--x-x-x-x-x-x--|--x--x--x--x--x--x-- |--x---x--x--x--x--x--x--x--x--x--
|--7-7-7-7-7-7--|--9--9--9--9--9--9-- |--10-10-10-10-10-10-10-10-10-10--
|---------------|---------------------|---------------------------------
                              A5:                    D5 Type 2
|---------------------------|--------------------|   |-------------|
|---------------------------|--------------------|   |-------------|
|--12-12-12-12-12-12-12-12- |--14-14-14-14-14-14-|   |-------------|
|---x--x--x--x--x--x--x--x- |---x--x--x--x--x--x-|   |--7-7-7-7----|
|--10-10-10-10-10-10-10-10- |--12-12-12-12-12-12-|   |--5-5-5-5----|
|---------------------------|--------------------|   |-------------|

Goes:
E5VII: x1
F#5: x1
G5: x1
A5: x1
G5: x1
A5: x1
G5: 1 Note, let ring x1


Important: The song above is NOT stored on the Chordie server. The original song is hosted at www.xguitar.com. Chordie works as a search engine and provides on-the-fly formatting. Chordie does not index songs against artists'/composers' will. To remove this song please click here.

This song is displayed as text-only. Transposing and tuning is only available for chordpro-songs.

Login - add to songbook

Rating click stars to rate

Layout
Accuracy

SHARE PAGE  




You need to log in to post comments