Guitar Tabs, Chords and Lyrics


It Could Be a Good Excuse    Used



This is a cool song,my first tab


E-|----------------2--------------2--------------2----------------2-----------------2---------------2-------------
B-|----------------3--------------3--------------3----------------3-----------------3---------------3-------------
G-|----------------2--------------2--------------2----------------2-----------------2---------------2-------------
D-|----------------0--------------0--------------0----------------0-----------------0---------------0-----------X1
A-|---------------------------------------------------------------------------------------------------------------
E-|--2-2----2-2-------------2-2--------------3-3--------------3-3---------------2-2-------------2-2------2-3-3-3--

E-|-------------2----------------2----------------2---------------2-----------------2--------------2------------
B-|-------------3----------------3----------------3---------------3-----------------3--------------3------------
G-|-------------2----------------2----------------2---------------2-----------------2--------------2------------
D-|-------------0----------------0----------------0---------------0-----------------0--------------0------------X2
A-|-------------------------------------------------------------------------------------------------------------
E-|----2-2---------------2-2-----------------3-3--------------3-3---------------2-2-------------2-2-----2-3-3-3-

E-|-------------2----------------2------------
B-|-------------3----------------3------------
G-|-------------2----------------2------------X1
D-|-------------0----------------0------------
A-|-------------------------------------------
E-|----2-2---------------2-2------------2-3-3-

E-|-------------2----------------2----------------2---------------2-----------------2--------------2------------
B-|-------------3----------------3----------------3---------------3-----------------3--------------3------------
G-|-------------2----------------2----------------2---------------2-----------------2--------------2------------
D-|-------------0----------------0----------------0---------------0-----------------0--------------0------------X2
A-|-------------------------------------------------------------------------------------------------------------
E-|----2-2---------------2-2-----------------3-3--------------3-3---------------2-2-------------2-2-----2-3-3-3-

E-|-------------2----------------2------------
B-|-------------3----------------3------------
G-|-------------2----------------2------------X1
D-|-------------0----------------0------------
A-|-------------------------------------------
E-|----2-2---------------2-2------------2-3-3-

E-|22-22-22-22--
B-|33-33-33-33-2
G-|22-22-22-22-2 X4
D-|00-00-00-00-2
A-|------------0
E-|-------------

E-|------------------
B-|--------2-h3p-2---
G-|-222222-----------
D-|-222222----------- X4
A-|-000000-----------
E-|palm mute---------

E-|----------------
B-|---------2-h3p-2
G-|-2--2-----------
D-|-2--2----------- x8
A-|-0--0-----------
E-|----------------

E-|-------------
B-|-------------
G-|-2-2-2-------
D-|-2-2-2----5-5 x1
A-|-0-0-0----5-5
E-|----------3-3

E-|-------------2----------------2----------------2---------------2-----------------2--------------2------------
B-|-------------3----------------3----------------3---------------3-----------------3--------------3------------
G-|-------------2----------------2----------------2---------------2-----------------2--------------2------------
D-|-------------0----------------0----------------0---------------0-----------------0--------------0------------X2
A-|-------------------------------------------------------------------------------------------------------------
E-|----2-2---------------2-2-----------------3-3--------------3-3---------------2-2-------------2-2-----2-3-3-3-

E-|-------------2----------------2------------
B-|-------------3----------------3------------
G-|-------------2----------------2------------X1
D-|-------------0----------------0------------
A-|-------------------------------------------
E-|----2-2---------------2-2------------2-3-3-

E-|--8--let-ring---13---------8--------13--------8------------8--------13-
B-|--11b-----------16b--------11b------16b-------11b----------11b------16b
G-|-----------------------------------------------------------------------
D-|-----------------------------------------------------------------------x1
A-|---bend to match note--------------------------------------------------
E-|-----------------------------------------------------------------------

E-|22-22-22-22--
B-|33-33-33-33--
G-|22-22-22-22-2 X4
D-|00-00-00-00-2
A-|------------0
E-|-------------

E-|------------------
B-|--------2-h3p-2---
G-|-222222-----------
D-|-222222----------- X8
A-|-000000-----------
E-|------------------

E-|----------------
B-|---------2-h3p-2
G-|-2--2-----------
D-|-2--2----------- x8
A-|-0--0-----------
E-|----------------

E-|------------
B-|------------
G-|-2--2-------
D-|-2--2-------x1
A-|-0--0-------


Important: The song above is NOT stored on the Chordie server. The original song is hosted at www.xguitar.com. Chordie works as a search engine and provides on-the-fly formatting. Chordie does not index songs against artists'/composers' will. To remove this song please click here.

This song is displayed as text-only. Transposing and tuning is only available for chordpro-songs.

Login - add to songbook

Rating click stars to rate

Layout
Accuracy

SHARE PAGE  




You need to log in to post comments