Chordie logo

The Taste of Ink    Used



the used - the taste of ink
Tabbed By: itallo
Email: mad_man802@hotmail.com

Tuning: Standard (E A D G B E)

this band rocks

/-slide down


x-scratch note

Verse (clean but halfway through the verses quinn kicks the distortion on)
e|------------------------------------------------------|
B|------------------------------------------------------|
G|------------------------------------------------------|
D|-12-12-10-9--12-12-10--9--7-7-7-7--10-10-9-9----------|
A|-7--7--7--7--10-10-10-10--5-5-5-5--10-10-9-9----------|
e|-7--7--7--7--10-10-10-10--5-5-5-5--10-10-9-9----------|

Pre Chorus
E|--------------------------|
B|--------------------------|
G|--------------------------|
D|-1212121212121212---------|
A|-1010101010101010---------|
e|--------------------------|

Chorus
E|--------------------------------------------------------|
B|--------------------------------------------------------|
G|--------------------------------------------------------|   2x
D|-777777777--555555555--999999999-/11--121212121212------|scratch the first time
A|-777777777--555555555--999999999-/11--121212121212------|
e|-555555555--555555555--777777777-/9---101010101010------|

Bridge (guitar 1)
E|-------------------------------------|
B|-------------------------------------|
G|------7------7-----0------0----------|
D|----9------9------9-----12-----------|
A|-10------9------12----15-------------|
e|-------------------------------------|

Bridge (guitar 2) this is played over the above clean as well)
E|-------------------------------------|
B|-------------------------------------|
G|-------------------------------------|
D|-5-------7------7-----10-------------|
A|-5-------5------7-----10-------------|
e|-5-------0------7-----10-------------|

Bridge 2 (this comes in over the other two when Bert starts singing)
E|------------------------------------------------------|
B|------------------------------------------------------|
G|-12121212-14141414-12121212-17171717-16161616---------|
D|-x-x-x-x--x-x-x-x--x-x-x-x--x-x-x-x--x-x-x-x----------|
A|-10101010-12121212-10101010-15151515-14141414---------|


Important: The song above is NOT stored on the Chordie server. The original song is hosted at www.xguitar.com. Chordie works as a search engine and provides on-the-fly formatting. Chordie does not index songs against artists/composers will. To remove this song please click here.

This song is displayed as text-only. Transposing and tuning is only available for chordpro-songs.

Login - add to songbook

Rating click stars to rate

Layout
Accuracy

SHARE PAGE  

You need to log in to post comments