Guitar Tabs, Chords and Lyrics


Blue and Yellow    Used



Author/Artist: The Used
Title: Blue and Yellow
Transcribed by: Kusha Karimi
Email: kbirdhouse@hotmail.com

This song is in Drop D tuning.

------------------------------------------------------------------------------
------------------------------------------------------------------------------
---10-10-10-10-10-9--9----10-10-10-10-10--------------------------------------
------------------------0-8--8--8--8--8---------------------------------------
---8--8--8--8--8--7--7--0-8--8--8--8--8---------------------------------------
-0-0--0--0--0--0--0--0--0-8--8--8--8--8---------------------------------------


------------------------------------------------------------------------------
------------------------------------------------------------------------------
----10-----10-----10-----10--10-10-10-10--------------------------------------
-----------------------------8--8--8--8---------------------------------------
-8-8---8-8----8-8----8-8-----8--8--8--8---------------------------------------
-----------------------------8--8--8--8---------------------------------------


------------------------------------------------------------------------------
------------------------------------------------------------------------------
-10-10-10-10-10-12-12-12-12-12--5-5-5-5-5--5-5-5-5-5--------------------------
-8--8--8--8--8--10-10-10-10-10--0-0-0-0-0--3-3-3-3-3--------------------------
-8--8--8--8--8--10-10-10-10-10--0-0-0-0-0--3-3-3-3-3--------------------------
-8--8--8--8--8--10-10-10-10-10--0-0-0-0-0--3-3-3-3-3--------------------------


------------------------------------------------------------------------------
------------------------------------------------------------------------------
------------------------------------------------------------------------------
-0----------------------------------------------------------------------------
-0-----8h9p8--8-8-8-8-8-------------------------------------------------------


Important: The song above is NOT stored on the Chordie server. The original song is hosted at www.xguitar.com. Chordie works as a search engine and provides on-the-fly formatting. Chordie does not index songs against artists'/composers' will. To remove this song please click here.

This song is displayed as text-only. Transposing and tuning is only available for chordpro-songs.

Login - add to songbook

Rating click stars to rate

Layout
Accuracy

SHARE PAGE  




You need to log in to post comments