Guitar Tabs, Chords and Lyrics


Noise and Kisses    Used



Used - Noise And Kisses
Submitted By: itsnoteasybeinweez
EMail: agnella@ptdprolog.net



 This is definitley a song that should be loved by people who love to pick.
 It gets alot easier as you go on but its hard to get in the beginning.
 it done in a whole step down tuning  D , G , C , F , A , D

He starts out wit this chord u should strum    (down,down,up,down,up)


|--10-------|
|--x--------|
|--7--------|
|-----------|
|-----------|
|-----------|
                  Verse________________ P.M = Plam Mute (only on 3's and 0's)
       (this should be picked - down,down,down,down,up)
|---------------------------------------------------------------------------
|---------------------------------------------------------------------------
|---------------------------------------------------------------------------
|-----5-5-4-----5-4-5-----7-7-4-----4-7-4-----5-5-4-----5-5-4-----7-7-4-----
|---------------------------------------------------------------------------
|-0-0-------3-3-------0-0-------0-0-------0-0-------3-3-------0-0-------0-0-
   P.M       P.M       P.M       P.M       P.M       P.M       P.M       P.M

|---------------------------------------------------------------------------
|---------------------------------------------------------------------------
|---------------------------------------------------------------------------
|-4-7-4-----5-5-4-----5-5-4-----7-7-4-----4-7-4------5-5-4-----5-5-4-----7--
|---------------------------------------------------------------------------
|-------0-0-------3-3-------0-0-------0-0--------0-0-------3-3-------0-0----
        P.M       P.M       P.M       P.M        P.M       P.M       P.M

|--------------------|     You hit this chord once and  |----0-----|
|--------------------|     and let it ring.             |----3-----|
|-7-4-----4-7-4------|                                  |----2-----|
|--------------------|                                  |----0-----|
|-----0-0------------|                                  |----------|
       P.M

|---------------------------------------------------------------------------
|---------------------------------------------------------------------------
|---------------------------------------------------------------------------
|-----5-5-4-----5-4-5-----7-7-4-----4-7-4-----5-5-4-----5-5-4-----7-7-4-----
|---------------------------------------------------------------------------
|-0-0-------3-3-------0-0-------0-0-------0-0-------3-3-------0-0-------0-0-
  P.M       P.M       P.M       P.M       P.M       P.M       P.M       P.M

|---------------------------------------------------------------------------
|---------------------------------------------------------------------------
|---------------------------------------------------------------------------
|-4-7-4-----5-5-4-----5-5-4-----7-7-4-----4-7-4------5-5-4-----5-5-4-----7--
|---------------------------------------------------------------------------
|-------0-0-------3-3-------0-0-------0-0--------0-0-------3-3-------0-0----
        P.M       P.M       P.M       P.M        P.M       P.M       P.M


|--------------------|       then sturm this chord until  |--------|
|--------------------|       the chorus                   |--------|
|--------------------|                                    |---7----|
|-7-4-----4-7-4------|                                    |---7----|
|--------------------|                                    |---5----|
|-----0-0------------|                                    |---5----|
      P.M


Chorus

|----------------------------------------------------------------------------
|----------------------------------------------------------------------------
|----------------------------------------------------------------------------
|--5-5-5-5-5-5-5-5--9-9-9-9-9-9-9-9--5-5-5-5-5-5-5-5--7-7-7-7-7-7-7-7--------
|--5-5-5-5-5-5-5-5--9-9-9-9-9-9-9-9--5-5-5-5-5-5-5-5--7-7-7-7-7-7-7-7--------
|--3-3-3-3-3-3-3-3--7-7-7-7-7-7-7-7--3-3-3-3-3-3-3-3--5-5-5-5-5-5-5-5--------

|-x-x-x-x-x-x----------------------------------------------------------------
|-x-x-x-x-x-x----------------------------------------------------------------
|-x-x-x-x-x-x----------------------------------------------------------------
|-x-x-x-x-x-x-5-5-5-5-5-5-5-5--9-9-9-9-9-9-9-9--5-5-5-5-5-5-5-5--7-7-7-7-7-7-
|-x-x-x-x-x-x-5-5-5-5-5-5-5-5--9-9-9-9-9-9-9-9--5-5-5-5-5-5-5-5--7-7-7-7-7-7-
|-x-x-x-x-x-x-3-3-3-3-3-3-3-3--7-7-7-7-7-7-7-7--3-3-3-3-3-3-3-3--5-5-5-5-5-5-

|-------------|
|-------------|
|-------------|
|--7-7--------|
|--7-7--------|
|--5-5--------|

  Verse (2nd time) with light phaser

|---------------------------------------------------------------------------
|---------------------------------------------------------------------------
|---------------------------------------------------------------------------
|-----5-5-4-----5-4-5-----7-7-4-----4-7-4-----5-5-4-----5-5-4-----7-7-4-----
|---------------------------------------------------------------------------
|-0-0-------3-3-------0-0-------0-0-------0-0-------3-3-------0-0-------0-0-
  P.M       P.M       P.M       P.M       P.M       P.M       P.M       P.M

|---------------------------------------------------------------------------
|---------------------------------------------------------------------------
|---------------------------------------------------------------------------
|-4-7-4-----5-5-4-----5-5-4-----7-7-4-----4-7-4------5-5-4-----5-5-4-----7--
|---------------------------------------------------------------------------
|-------0-0-------3-3-------0-0-------0-0--------0-0-------3-3-------0-0----
        P.M       P.M       P.M       P.M        P.M       P.M       P.M

|--------------------|
|--------------------|
|--------------------|
|-7-4-----4-7-4------|
|--------------------|
|-----0-0------------|
      P.M



  Chorus (2nd time going into bridge)

|----------------------------------------------------------------------------
|----------------------------------------------------------------------------
|----------------------------------------------------------------------------
|-5-5-5-5-5-5-5-5--9-9-9-9-9-9-9-9--5-5-5-5-5-5-5-5--7-7-7-7-7-7-7-7---------
|-5-5-5-5-5-5-5-5--9-9-9-9-9-9-9-9--5-5-5-5-5-5-5-5--7-7-7-7-7-7-7-7---------
|-3-3-3-3-3-3-3-3--7-7-7-7-7-7-7-7--3-3-3-3-3-3-3-3--5-5-5-5-5-5-5-5---------

|-x-x-x-x-x-x----------------------------------------------------------------
|-x-x-x-x-x-x----------------------------------------------------------------
|-x-x-x-x-x-x----------------------------------------------------------------
|-x-x-x-x-x-x--5-5-5-5-5-5-5-5--9-9-9-9-9-9-9-9--5-5-5-5-5-5-5-5--7-7-7-7-7-7
|-x-x-x-x-x-x--5-5-5-5-5-5-5-5--9-9-9-9-9-9-9-9--5-5-5-5-5-5-5-5--7-7-7-7-7-7
|-x-x-x-x-x-x--3-3-3-3-3-3-3-3--7-7-7-7-7-7-7-7--3-3-3-3-3-3-3-3--5-5-5-5-5-5

|----------------------------------------x-x-x-x-----------------------------
|----------------------------------------x-x-x-x-----------------------------
|----------------------------------------x-x-x-x-----------------------------
|-7-7-7-7-7-7-7-7-7-7-7-7-7---7-7-7-7-7--x-x-x-x--3-3-3-3--5-5-5-5--7-7-7-7-7
|-7-7-7-7-7-7-7-7-7-7-7-7-7---7-7-7-7-7--x-x-x-x--3-3-3-3--5-5-5-5--7-7-7-7-7
|-5-5-5-5-5-5-5-5-5-5-5-5-5---5-5-5-5-5--x-x-x-x--1-1-1-1--3-3-3-3--5-5-5-5-5

|-x-x-x-x--------------------------------x-x-x-x-----------------------------
|-x-x-x-x--------------------------------x-x-x-x-----------------------------
|-x-x-x-x--------------------------------x-x-x-x-----------------------------
|-x-x-x-x--3-3-3-3--5-5-5-5--7-7-7-7-7---x-x-x-x---5-5-5-5-5-5-5-5--7-7-7-7--
|-x-x-x-x--3-3-3-3--5-5-5-5--7-7-7-7-7---x-x-x-x---5-5-5-5-5-5-5-5--7-7-7-7--
|-x-x-x-x--1-1-1-1--3-3-3-3--5-5-5-5-5---x-x-x-x---3-3-3-3-3-3-3-3--5-5-5-5--

|---------------------|
|----------let-ring---|
|---------------------|
|-7-7-7-7---7---------|
|-7-7-7-7---7---------|
|-5-5-5-5---5---------|

   Verse (3rd time) with deep phaser


|---------------------------------------------------------------------------
|---------------------------------------------------------------------------
|---------------------------------------------------------------------------
|-----5-5-4-----5-4-5-----7-7-4-----4-7-4-----5-5-4-----5-5-4-----7-7-4-----
|---------------------------------------------------------------------------
|-0-0-------3-3-------0-0-------0-0-------0-0-------3-3-------0-0-------0-0-
  P.M       P.M       P.M       P.M       P.M       P.M       P.M       P.M

|---------------------------------------------------------------------------
|---------------------------------------------------------------------------
|---------------------------------------------------------------------------
|-4-7-4-----5-5-4-----5-5-4-----7-7-4-----4-7-4------5-5-4-----5-5-4-----7--
|---------------------------------------------------------------------------
|-------0-0-------3-3-------0-0-------0-0--------0-0-------3-3-------0-0----
        P.M       P.M       P.M       P.M        P.M       P.M       P.M

|--------------------|
|--------------------|
|--------------------|
|-7-4-----4-7-4------|
|--------------------|
|-----0-0------------|
      P.M



Chorus (3rd time)

|----------------------------------------------------------------------------
|----------------------------------------------------------------------------
|----------------------------------------------------------------------------
|--5-5-5-5-5-5-5-5--9-9-9-9-9-9-9-9--5-5-5-5-5-5-5-5--7-7-7-7-7-7-7-7--------
|--5-5-5-5-5-5-5-5--9-9-9-9-9-9-9-9--5-5-5-5-5-5-5-5--7-7-7-7-7-7-7-7--------
|--3-3-3-3-3-3-3-3--7-7-7-7-7-7-7-7--3-3-3-3-3-3-3-3--5-5-5-5-5-5-5-5--------

|-x-x-x-x-x-x----------------------------------------------------------------
|-x-x-x-x-x-x----------------------------------------------------------------
|-x-x-x-x-x-x----------------------------------------------------------------
|-x-x-x-x-x-x-5-5-5-5-5-5-5-5--9-9-9-9-9-9-9-9--5-5-5-5-5-5-5-5--7-7-7-7-7-7-
|-x-x-x-x-x-x-5-5-5-5-5-5-5-5--9-9-9-9-9-9-9-9--5-5-5-5-5-5-5-5--7-7-7-7-7-7-
|-x-x-x-x-x-x-3-3-3-3-3-3-3-3--7-7-7-7-7-7-7-7--3-3-3-3-3-3-3-3--5-5-5-5-5-5-

|----------------------------------------------------------------------------
|----------------------------------------------------------------------------
|----------------------------------------------------------------------------
|-7-7-7-7-7-7--5-5-5-5-5-5-5-5--9-9-9-9-9-9-9-9--5-5-5-5-5-5-5-5--7-7-7-7-7-7
|-7-7-7-7-7-7--5-5-5-5-5-5-5-5--9-9-9-9-9-9-9-9--5-5-5-5-5-5-5-5--7-7-7-7-7-7
|-5-5-5-5-5-5--3-3-3-3-3-3-3-3--7-7-7-7-7-7-7-7--3-3-3-3-3-3-3-3--5-5-5-5-5-5

|-x-x-x-x-x-x----------------------------------------------------------------
|-x-x-x-x-x-x----------------------------------------------------------------
|-x-x-x-x-x-x----------------------------------------------------------------
|-x-x-x-x-x-x-5-5-5-5-5-5-5-5--9-9-9-9-9-9-9-9--5-5-5-5-5-5-5-5--7-7-7-7-7-7-
|-x-x-x-x-x-x-5-5-5-5-5-5-5-5--9-9-9-9-9-9-9-9--5-5-5-5-5-5-5-5--7-7-7-7-7-7-
|-x-x-x-x-x-x-3-3-3-3-3-3-3-3--7-7-7-7-7-7-7-7--3-3-3-3-3-3-3-3--5-5-5-5-5-5-

|--------------------------------|
|--------------------------------|
|--------------------------------|
|--7-7-7-7-7-7-7-7---------------|
|--7-7-7-7-7-7-7-7---------------|
|--5-5-5-5-5-5-5-5---------------|

thats the end of the song some parts may be wrong email if you have any
questions the struming and timing your gunna have to figure out on your
own I did and im sure you could to so thanks , enjoy



Important: The song above is NOT stored on the Chordie server. The original song is hosted at www.xguitar.com. Chordie works as a search engine and provides on-the-fly formatting. Chordie does not index songs against artists'/composers' will. To remove this song please click here.

This song is displayed as text-only. Transposing and tuning is only available for chordpro-songs.

Login - add to songbook

Rating click stars to rate

Layout
Accuracy

SHARE PAGE  




You need to log in to post comments