Xeper

Vader


Band: Vader Album: Litany Song: Xeper by vaderfan *** ORIGINALLY BY "Jim Kekonius"
Tune down one wholestep (D). Listen to the song for rhythm.
Intro Argh! Can´t hear stuff at the moment. |-------------------------| |-------------------------| |-------------------------| |-------?-------?---------| |-------------------------| |-------------------------|
Fill 1 |----------| |----------| |-3-3--3-3-| |-3-3--3-3-| |-1-1--1-1-| |----------|
Pre verse riff |---------------------------| |---------------------------| |---------------------------| |---------------------------| |-------------------5-7-8---| |-00000-00000-00000-3-5-6---| ..... ..... .....
|---------------------------| |---------------------------| |---------------------------| |---------------------------| |-------------------5-7-8-8-| |-00000-00000-00000-3-5-6-6-| ..... ..... .....
|---------------------------| |---------------------------| |---------------------------| |---------------------------| |-------------------5-7-8---| |-00000-00000-00000-3-5-6---| ..... ..... .....
|----------------------------| |----------------------------| |----------------------------| |----------------------------| |-------------------8-8-1010-| |-00000-00000-00000-6-6-8-8--| ..... ..... .....
Verse Riff |-------------------------| |-------------------------| |-------------------------| |-------------------------| |-------------------------| |-00000-00000-00000-------| ..... ..... .....
|-------------------------| |-------------------------| |-------------------------| |-----------------------5-| |-----------------------5-| |-00000-00000-00000-----3-| ..... ..... .....
|-------------------------| |-------------------------| |-------------------------| |-------------------------| |-------------------------| |-00000-00000-00000-------| ..... ..... .....
|--------------------------------| |--------------------------------| |--------------------------------| |--------------------------------| |--------------------------------| |-00000-33333-44444-33333-111-333| ..... ..... ..... ..... ... ...
|--------------------------| |--------------------------| |--------------------------| |--------------------------| |-------------------3-5----| |-00000-00000-00000-1-3-4~-| ..... ..... .....
|---------------------------| |---------------------------| |---------------------------| |---------------------------| |-------------------3-5---8-| |-00000-00000-00000-1-3-4-6-| ..... ..... .....
|-------------------------| |-------------------------| |-------------------------| |-------------------------| |-------------------------| |-00000-00000-00000-------| ..... ..... .....
|-------------------------| |-------------------------| |-------------------------| |-----------------------5-| |-----------------------5-| |-00000-00000-00000-----3-| ..... ..... .....
|-------------------------| |-------------------------| |-------------------------| |-------------------------| |-------------------------| |-00000-00000-00000-------| ..... ..... .....
|-------------------------------| |-------------------------------| |-------------------------------| |-------------------------------| |-------------------------5-4-2-| |-00000-33333-44444-00000-3-2-0-| ..... ..... ..... .....
Chorus Riff |-------------------------------| |-------------------------------| |-4NH-Tremelo-raise-then-down---| |-------------------------------| |-------------------------------| |-------------------------------|
|-------------------------| |-------------------------| |-------------------------| |-----2---5---4---6---5-2-| |-----2---5---4---6---5-2-| |-00000-003-002-004-003-0-| .... .. .. .. ..
|-------------------------------| |-------------------------------| |-4NH-Tremelo-raise-then-down---| |-------------------------------| |-------------------------------| |-------------------------------|
Play pre verse riff * 1
|-------------------------| |-------------------------| |-------------------------| |-------------------------| |-------------------------| |-00000-00000-00000-------| ..... ..... .....
|-------------------------| |-------------------------| |-------------------------|
|-----------------------5-| |-----------------------5-| |-00000-00000-00000-----3-| ..... ..... .....
|-------------------------| |-------------------------| |-------------------------| |-------------------------| |-------------------------| |-00000-00000-00000-------| ..... ..... .....
|-------------------------------| |-------------------------------| |-------------------------------| |-------------------------------| |-------------------------5-4-2-| |-00000-33333-44444-00000-3-2-0-| ..... ..... ..... .....
|-------------------------------| |-------------------------------| |-4NH-Tremelo-raise-then-down---| |---------------------------3/5-| |---------------------------3/5-| |---------------------------1/3-|
|-----------------------| |-----------------------| |-----------------------| |-----2---5---4---6---5-| |-----2---5---4---6---5-| |-00000-003-002-004-003-| .... .. .. .. ..
|------------| |------------| |------------| |-5----------| |-3----------| |-3----------|
|-------------------| |-------------------| |-------------------| |-----2---3---6---5-| |-----2---3---6---5-| |-00000-001-004---3-| .... .. ..
Guitar 1 |---------------------------| |---------------------------| |---------------------------| |-2-------------------------| |-2-------------------------| |-0-------------------------|
Guitar 2 |---------------------------| |---------------------------| |---------------------------| |------------------3--------| |------------------1--------| |---------------------------|
Guitar 1 |---------------------------| |---------------------------| |---------------------------| |-2-------------------------| |-2-------------------------| |-0-------------------------|
Guitar 2 |---------------------------| |---------------------------| |---------------------------| |------------------3--------| |------------------1--------| |---------------------------|
|---------------------------| |-Due to lazyness...--------| |---------------------------| |----------------------5----| |----------------------3----| |-0"-1"-0"-1"-0"-1"-0"-3----| . . . . . . .
Play pre verse riff * 1
|---------------------------------| |---------------------------------| |---------------------------------| |---------------------------------| |---------------------------------| |-00000-00000-00000-11111-444-333-| ..... ..... ..... ..... ... ...
|---------------------------------| |---------------------------------| |---------------------------------| |---------------------------------| |---------------------------------| |-00000-00000-00000-11111-444-333-| ..... ..... ..... ..... ... ...
|---------------------------------| |---------------------------------| |---------------------------------| |---------------------------------| |---------------------------------| |-00000-00000-00000-11111-444-333-| ..... ..... ..... ..... ... ...
|---------------------------------| |---------------------------------| |---------------------------------| |---------------------------------| |---------------------------------| |-00000-33333-44444-33333-111-333-| ..... ..... ..... ..... ... ...
|--------------------------| |--------------------------| |--------------------------| |--------------------------| |-------------------3-5----| |-00000-00000-00000-1-3-4~-| ..... ..... .....
|-----------------------------| |-----------------------------| |-----------------------------| |-----------------------------| |-------------------3-5-6-8-2-| |-00000-00000-00000-1-3-4-6-0-| ..... ..... .....
|-------------------------------| |-------------------------------| |-4NH-Tremelo-raise-then-down---| |---------------------------3/5-| |---------------------------3/5-| |---------------------------1/3-|
|-------------------------| |-------------------------| |-------------------------| |-----2---5---4---6---5-5-| |-----2---5---4---6---5-5-| |-00000-003-002-004-003-3-| .... .. .. .. ..
|---|---------------------------| |---|---------------------------| |---|.--------------------------| |---|.--------------------------| |-2-|-------------------5-7-8---| |-0-|-00000-00000-00000-3-5-6---| ..... ..... .....
|---------------------------| * 6 |---------------------------| |--------------------------.| |--------------------------.| |-------------------5-7-8-8-| |-00000-00000-00000-3-5-6-6-| ..... ..... .....
|---| |---| |---| |-2-| |-2-| |-0-|

variations - click chord images
Transpose chords:
Tuning:
Cool service:
View: Size:
A  A  A
Rating:
Layout:
  • Currently 0/5 Stars.
  • 1
  • 2
  • 3
  • 4
  • 5
 
Accuracy:
  • Currently 2.7/5 Stars.
  • 1
  • 2
  • 3
  • 4
  • 5
 
click stars to rate
Chordie recommends:
Check out JamPlay.com for online video guitar lessons
Songbook:
Login to add this song to your songbook
Support the artist
Preview/buy this song
MSN Music
Why this non-profit ad?

 
login to add comments/video/corrections