Chordie logo


Xeper    Vader



Band: Vader
Album: Litany
Song: Xeper
by vaderfan
*** ORIGINALLY BY "Jim Kekonius"


Tune down one wholestep (D).
Listen to the song for rhythm.

Intro
Argh! CanÂīt hear stuff at the moment.
|-------------------------|
|-------------------------|
|-------------------------|
|-------?-------?---------|
|-------------------------|
|-------------------------|

Fill 1
|----------|
|----------|
|-3-3--3-3-|
|-3-3--3-3-|
|-1-1--1-1-|
|----------|

Pre verse riff
|---------------------------|
|---------------------------|
|---------------------------|
|---------------------------|
|-------------------5-7-8---|
|-00000-00000-00000-3-5-6---|
  ..... ..... .....

|---------------------------|
|---------------------------|
|---------------------------|
|---------------------------|
|-------------------5-7-8-8-|
|-00000-00000-00000-3-5-6-6-|
  ..... ..... .....

|---------------------------|
|---------------------------|
|---------------------------|
|---------------------------|
|-------------------5-7-8---|
|-00000-00000-00000-3-5-6---|
  ..... ..... .....

|----------------------------|
|----------------------------|
|----------------------------|
|----------------------------|
|-------------------8-8-1010-|
|-00000-00000-00000-6-6-8-8--|
  ..... ..... .....

Verse Riff
|-------------------------|
|-------------------------|
|-------------------------|
|-------------------------|
|-------------------------|
|-00000-00000-00000-------|
  ..... ..... .....

|-------------------------|
|-------------------------|
|-------------------------|
|-----------------------5-|
|-----------------------5-|
|-00000-00000-00000-----3-|
  ..... ..... .....

|-------------------------|
|-------------------------|
|-------------------------|
|-------------------------|
|-------------------------|
|-00000-00000-00000-------|
  ..... ..... .....

|--------------------------------|
|--------------------------------|
|--------------------------------|
|--------------------------------|
|--------------------------------|
|-00000-33333-44444-33333-111-333|
  ..... ..... ..... ..... ... ...

|--------------------------|
|--------------------------|
|--------------------------|
|--------------------------|
|-------------------3-5----|
|-00000-00000-00000-1-3-4~-|
  ..... ..... .....

|---------------------------|
|---------------------------|
|---------------------------|
|---------------------------|
|-------------------3-5---8-|
|-00000-00000-00000-1-3-4-6-|
  ..... ..... .....

|-------------------------|
|-------------------------|
|-------------------------|
|-------------------------|
|-------------------------|
|-00000-00000-00000-------|
  ..... ..... .....

|-------------------------|
|-------------------------|
|-------------------------|
|-----------------------5-|
|-----------------------5-|
|-00000-00000-00000-----3-|
  ..... ..... .....

|-------------------------|
|-------------------------|
|-------------------------|
|-------------------------|
|-------------------------|
|-00000-00000-00000-------|
  ..... ..... .....

|-------------------------------|
|-------------------------------|
|-------------------------------|
|-------------------------------|
|-------------------------5-4-2-|
|-00000-33333-44444-00000-3-2-0-|
  ..... ..... ..... .....

Chorus Riff
|-------------------------------|
|-------------------------------|
|-4NH-Tremelo-raise-then-down---|
|-------------------------------|
|-------------------------------|
|-------------------------------|

|-------------------------|
|-------------------------|
|-------------------------|
|-----2---5---4---6---5-2-|
|-----2---5---4---6---5-2-|
|-00000-003-002-004-003-0-|
  ....  ..  ..  ..  ..

|-------------------------------|
|-------------------------------|
|-4NH-Tremelo-raise-then-down---|
|-------------------------------|
|-------------------------------|
|-------------------------------|

Play pre verse riff * 1

|-------------------------|
|-------------------------|
|-------------------------|
|-------------------------|
|-------------------------|
|-00000-00000-00000-------|
  ..... ..... .....

|-------------------------|
|-------------------------|
|-------------------------|
|-----------------------5-|
|-----------------------5-|
|-00000-00000-00000-----3-|
  ..... ..... .....

|-------------------------|
|-------------------------|
|-------------------------|
|-------------------------|
|-------------------------|
|-00000-00000-00000-------|
  ..... ..... .....

|-------------------------------|
|-------------------------------|
|-------------------------------|
|-------------------------------|
|-------------------------5-4-2-|
|-00000-33333-44444-00000-3-2-0-|
  ..... ..... ..... .....

|-------------------------------|
|-------------------------------|
|-4NH-Tremelo-raise-then-down---|
|---------------------------3/5-|
|---------------------------3/5-|
|---------------------------1/3-|

|-----------------------|
|-----------------------|
|-----------------------|
|-----2---5---4---6---5-|
|-----2---5---4---6---5-|
|-00000-003-002-004-003-|
  ....  ..  ..  ..  ..

|------------|
|------------|
|------------|
|-5----------|
|-3----------|
|-3----------|

|-------------------|
|-------------------|
|-------------------|
|-----2---3---6---5-|
|-----2---3---6---5-|
|-00000-001-004---3-|
  ....  ..  ..

Guitar 1
|---------------------------|
|---------------------------|
|---------------------------|
|-2-------------------------|
|-2-------------------------|
|-0-------------------------|

Guitar 2
|---------------------------|
|---------------------------|
|---------------------------|
|------------------3--------|
|------------------1--------|
|---------------------------|

Guitar 1
|---------------------------|
|---------------------------|
|---------------------------|
|-2-------------------------|
|-2-------------------------|
|-0-------------------------|

Guitar 2
|---------------------------|
|---------------------------|
|---------------------------|
|------------------3--------|
|------------------1--------|
|---------------------------|


|---------------------------|
|-Due to lazyness...--------|
|---------------------------|
|----------------------5----|
|----------------------3----|
|-0"-1"-0"-1"-0"-1"-0"-3----|
  .  .  .  .  .  .  .

Play pre verse riff * 1

|---------------------------------|
|---------------------------------|
|---------------------------------|
|---------------------------------|
|---------------------------------|
|-00000-00000-00000-11111-444-333-|
  ..... ..... ..... ..... ... ...

|---------------------------------|
|---------------------------------|
|---------------------------------|
|---------------------------------|
|---------------------------------|
|-00000-00000-00000-11111-444-333-|
  ..... ..... ..... ..... ... ...

|---------------------------------|
|---------------------------------|
|---------------------------------|
|---------------------------------|
|---------------------------------|
|-00000-00000-00000-11111-444-333-|
  ..... ..... ..... ..... ... ...

|---------------------------------|
|---------------------------------|
|---------------------------------|
|---------------------------------|
|---------------------------------|
|-00000-33333-44444-33333-111-333-|
  ..... ..... ..... ..... ... ...

|--------------------------|
|--------------------------|
|--------------------------|
|--------------------------|
|-------------------3-5----|
|-00000-00000-00000-1-3-4~-|
  ..... ..... .....

|-----------------------------|
|-----------------------------|
|-----------------------------|
|-----------------------------|
|-------------------3-5-6-8-2-|
|-00000-00000-00000-1-3-4-6-0-|
  ..... ..... .....

|-------------------------------|
|-------------------------------|
|-4NH-Tremelo-raise-then-down---|
|---------------------------3/5-|
|---------------------------3/5-|
|---------------------------1/3-|

|-------------------------|
|-------------------------|
|-------------------------|
|-----2---5---4---6---5-5-|
|-----2---5---4---6---5-5-|
|-00000-003-002-004-003-3-|
  ....  ..  ..  ..  ..

|---|---------------------------|
|---|---------------------------|
|---|.--------------------------|
|---|.--------------------------|
|-2-|-------------------5-7-8---|
|-0-|-00000-00000-00000-3-5-6---|
      ..... ..... .....

|---------------------------| * 6
|---------------------------|
|--------------------------.|
|--------------------------.|
|-------------------5-7-8-8-|
|-00000-00000-00000-3-5-6-6-|
  ..... ..... .....

|---|
|---|
|---|
|-2-|
|-2-|


Important: The song above is NOT stored on the Chordie server. The original song is hosted at www.xguitar.com. Chordie works as a search engine and provides on-the-fly formatting. Chordie does not index songs against artists/composers will. To remove this song please click here.

This song is displayed as text-only. Transposing and tuning is only available for chordpro-songs.

Login - add to songbook

Rating click stars to rate

Layout
Accuracy

Jango Player

SHARE PAGE  




You need to log in to post comments