Guitar Tabs, Chords and Lyrics


Chimaira - Fascination Street    Various Artists



fascination street
7 string guitar in drop g tuning  (holy moses malone that is low)
tune the whole guitar down a step then the top string down another full stop

/ = slide
b = bend
||---------------------------------------------------------------||
||---------------------------------------------------------------||
||---------------------------------------------------------------||
||---------------------------------------------------------------||    1st part......
||---------------------------------------------------------------||
||--5--5--5--5---5--5--5--5----------------5-5-5-5--5-5-5-5------||
||--5--5--5--5---5--5--5--5----8-8-8-8-----5-5-5-5--5-5-5-5------||

||----------------------------------------------------------------------------||
||----------------------------------------------------------------------------||
||----------------------------------------------------------------------------||
||----------------------------------------------------------------------------||    continued 1st part
||----------------------------------------------------------------------------||
||--------------1-1-1-1--1-1-1-1---------------------------------3-3-3-3------||
||--7-7-7-7-----1-1-1-1--1-1-1-1--/10-10-10-10---0-0-0--0--------3-3-3-3------||
||--------------------------------------------------------------------------------------||
||--------------------------------------------------------------------------------------||
||--------------------------------------------------------------------------------------||
||--------------------------------------------------------------------------------------||
||--------------------------------------------------------------------------------------||
||-5---------8--------5----------7-----------1---------/10-----------0------------------||
||-5---------8--------5----------7-----------1---------/10-----------0------------------||
||-------------------------------------------------------------------------------------------------------||
||-------------------------------------------------------------------------------------------------------||
||-------------------------------------------------------------------------------------------------------||
||-------------------------------------------------------------------------------------------------------||
||-------------------------------------------------------------------------------------------------------||
||-5-5---5-5-------8-8--8-8-----5-5--5-5------7-7-7-7--------1-1--1-1-----10-10-10---------0-0--0-0------||
||-5-5---5-5-------8-8--8-8-----5-5--5-5------7-7-7-7--------1-1--1-1-----10-10-10---------0-0--0-0------||
your getting the hang of it right?
||------------------------------------------------------------------------------------------------||
||------------------------------------------------------------------------------------------------||
||------------------------------------------------------------------------------------------------||
||------------------------------------------------------------------------------------------------||
||------------------------------------------------------------------------------------------------||
||---5-5-5--5-5-5------------5-5-5--5-5-5----------1-1-1--1-1-1--------------0-0-0--0-0-0---------||
||---5-5-5--5-5-5---8b------5-5-5--5-5-5---7b----1-1-1--1-1-1-----10b----0-0-0--0-0-0---3b--------||
back to the beginning



Important: The song above is NOT stored on the Chordie server. The original song is hosted at www.xguitar.com. Chordie works as a search engine and provides on-the-fly formatting. Chordie does not index songs against artists'/composers' will. To remove this song please click here.

This song is displayed as text-only. Transposing and tuning is only available for chordpro-songs.

Login - add to songbook

Rating click stars to rate

Layout
Accuracy

SHARE PAGE  




You need to log in to post comments