Guitar Tabs, Chords and Lyrics


Free    Vast



Vast - Free
Standard Tuning

Intro/Verse:
e |----------------------------------------------------------------|
b |-(5)------------------------------------------------------------|
g |-(4)------------------------------------------------------------|
d |--2--2--2-2--2-2---0h2-0h2-3p2-0h2------------------------------|
a |--x--x--x-x--x-x------------------------------------------------|
e |--0--0--0-0--0-0------------------------------------------------|

Chorus:  (guitar 1)
e |-----------------------(9)-(9)----------------------------------|
b |-----9---9-------------10--10-----------------------------------|
g |-----9---9-----7--7----11--11-----------------------------------|
d |-----9---9-----9--9----11--11-----------------------------------|
a |-----7---7-----9--9----9---9------------------------------------|
e |--0--0-0-0-----7--7---------------------------------------------|

Chorus: (guitar 2) (maybe, it's hard to hear)
e |---------0------------------------------------------------------|
b |------------4---0---3------7------------------------------------|
g |----------------------------------------------------------------|
d |----------------------------------------------------------------|
a |----------------------------------------------------------------|
e |---0------------------------------------------------------------|

Verse 2:
e |----------------------------------------------------------------|
b |----------------------------------------------------------------|
g |----------------------------------------------------------------|
d |-----2-2-0h2-----2-2-0h2-----2-2-0h2-0h2-0h2-3p2-0h2------------|
a |----------------------------------------------------------------|
e |--0-----------0-----------0-------------------------------------|
   (palm mute the low E string)

tabbed by zipztabs.com


Important: The song above is NOT stored on the Chordie server. The original song is hosted at www.xguitar.com. Chordie works as a search engine and provides on-the-fly formatting. Chordie does not index songs against artists'/composers' will. To remove this song please click here.

This song is displayed as text-only. Transposing and tuning is only available for chordpro-songs.

Login - add to songbook

Rating click stars to rate

Layout
Accuracy

Jango Player

SHARE PAGE  




You need to log in to post comments