Chordie logo


The Gates of Rock 'N' Roll    Vast



Guitar 1
|-----1-------1-------0-------0---------
|-------3-------3-------3-------3-------
|---------------------------------------
|---------------------------------------
|---------------------------------------
|---------------------------------------

Guitar 2
|-----1-------1-------0--------3--3-3---
|-------3-------3-------3------3--3-3---
|---2-------2-------1---------0---------
|-0-------3-------2---------0-----------
|------------------------(2)------------
|---------------------------------------
                            |-strum -|

Chorus:
|--------------------------------
|--------------------------------
|--------------------------------
|-3/5-5-5-5---5-5/5-5-5-7\5-1/3--
|-3/5-5-5-5---5-3/5-5-5-7\5-1/3--
|-1/3-3-3-3---3-1/3-3-3-5\3-1/3--


Verse riff:
|------------------------------------------
|------------------------------------3-3-3-
|-----------------------/7---5---4---4-4-4-
|-0---2-3-0-/7--2---5-3--------------5-5-5-
|------------------------------------------


Important: The song above is NOT stored on the Chordie server. The original song is hosted at www.xguitar.com. Chordie works as a search engine and provides on-the-fly formatting. Chordie does not index songs against artists/composers will. To remove this song please click here.

This song is displayed as text-only. Transposing and tuning is only available for chordpro-songs.

Login - add to songbook

Rating click stars to rate

Layout
Accuracy

SHARE PAGE  




You need to log in to post comments