Guitar Tabs, Chords and Lyrics


Thrown Away    Vast



This is the main part of the song played on the electric & the acoustic.
I'm figuring out the rest as you read this so I'll update it soon!

                                     PM-------------|
|--------------------|----------------------------------|
|--------------------|----------------------------------|
|--------------------|----------------------------------|
|-4-4-4-4-4-2-2-2-2--|-7-7-7-7-7-4----------------------|
|-4-4-4-4-4-2-2-2-2--|-7-7-7-7-7-4----------------------|
|-2-2-2-2-2-0-0-0-0--|-5-5-5-5-5-2--(2)-(2)-(2)-(2)-(3)-|


                                     PM-------------|
|--------------------|-----------------------------------|
|--------------------|-----------------------------------|
|--------------------|-----------------------------------|
|-4-4-4-4-4-2-2-2-2--|-7-7-7-7-7-4-----------------------|
|-4-4-4-4-4-2-2-2-2--|-7-7-7-7-7-4-----------------------|


Important: The song above is NOT stored on the Chordie server. The original song is hosted at www.xguitar.com. Chordie works as a search engine and provides on-the-fly formatting. Chordie does not index songs against artists'/composers' will. To remove this song please click here.

This song is displayed as text-only. Transposing and tuning is only available for chordpro-songs.

Login - add to songbook

Rating click stars to rate

Layout
Accuracy

SHARE PAGE  




You need to log in to post comments