Chordie logo


In League With Satan    Venom



Venom- In League With Satan
Riff A
|---------------------------------------------------------------|
|---------------------------------------------------------------|
|---------------------------------------------------------------|
|-----------------------5-7-----------------------5-------------|
|--0-0-0--0-0-0--0-0-0--3-5--0-0-0--0-0-0--0-0-0--3--5----------|
|----------------------------------------------------3----------|

Riff B
|-----------------------------------------------------------|
|-----------------------------------------------------------|
|-----------------------------------------------------------|
|-----------------------------------------------------------|
|-----------------------------------------------------------|
|--0-0-0--0-0-0--0-0-0-2h3p2--0-0-0--0-0-0--0-0-0--2h3p2----|

Riff C
|--------------------------------|
|--------------------------------|
|----------7--5-5--5-------------|
|--7----5--7--5-5--5--7--5-------|
|--7----5--5--3-3--3--7--5-------|
|--5-12/3-------------5--3-------|

Riff D
|-------------------------------------|
|-------------------------------------|
|-------------------------------------|
|-------------------------------------|
|--7-7-7--2-2-5--7-7-7--7--5-5-5------|
|--55555--0-0-3--5-5-5--5--3-3-3------|




Important: The song above is NOT stored on the Chordie server. The original song is hosted at www.xguitar.com. Chordie works as a search engine and provides on-the-fly formatting. Chordie does not index songs against artists/composers will. To remove this song please click here.

This song is displayed as text-only. Transposing and tuning is only available for chordpro-songs.

Login - add to songbook

Rating click stars to rate

Layout
Accuracy

SHARE PAGE  




You need to log in to post comments