eToCache5 = ""; ?> To The Kill by Violent Femmes - guitar chords, guitar tabs and lyrics - chordie

To The Kill

Violent Femmes

 AmGAmG
Bass makes various random noises

Verse 1:

The verse varies, but overall it looks something like
this:

verse
 AmGAm
e|-0----0-------------3-----------0------0----------|
B|-1-------1-1----------3---------1---------1--1--1-|
G|-2--2----2-2-0-0--0-----0--0----2----2----2--2--2-|
D|-2-------2-2-0-0-----------0----2---------2--2--2-|
A|-------------0-2----------------------------------|
E|---------------3----------------------------------|
G|--------------------------------------------------|
D|-------------------------------2---2-0----2-0-----|
A|-0--0--0^2^0---------------0-0---0----2-0-----2-0-|
E|-------------0-3--3--0-2-3------------------------|


 AmGAm
 ain't had no fun all the time jackin' around
 AmGAm
 Ain't had no fun messin' my mind, I kick it around

Chorus:
 AmG
 But if it's alright with you
 AmG
And it's alright yes I will
 Am
 Ah c'mon babe, go'head, to the kill

Break:

 AmGAmG
Bass makes various random noises

Verse 2:

 AmGAm
 I ain't no Kid Chicago  I ain't no Al Capone
 AmGAm
 But there's a windy city in my bedroom alone
 AmGAm
 I said I don't live in Chicago  I don't know no Al Capone
 AmG
 That bitch took my money and went to Chicago
 Am
 If I ain't already enough sick and alone

repeat Chorus:

Solo:

Bass repeats Verse pattern

e----------------------------------------------------------|
B----------------------------------------------------------|
G-14b--r--14b-r-14b-r-14b-r-14-12------14b-r---14b-r-14b-r-|
D---------------------------------14-----------------------|
A----------------------------------------------------------|
E----------------------------------------------------------|
e----------------------------------------------------------|
B---------------12------------------------12------------12-|
G-14b-r--12-----12--14b--14--14r--12---------15--x---------|
D-----------14------------------------14------------14-----|
A----------------------------------------------------------|
E----------------------------------------------------------|
e----------------------------------------------------------|
B-------------12-------------------------------------------|
G-15--13----------15--13------14b-r-14b-r-14b-r-14b-r-14b-r|
D---------14--------------14-------------------------------|
A----------------------------------------------------------|
E----------------------------------------------------------|
e----------------------------------------------------------|
B----------------------------------------------------------|
G-14b-r-14b-r-14b-r-14b-r-14b-r-14b-r-14b-r-14b-r-14b-r-14b|
D----------------------------------------------------------|
A----------------------------------------------------------|
E----------------------------------------------------------|
e-------------12-12-12--12------12-12-12--12------12-12-12-|
B-------------12-12-12--12------12-12-12--12------12-12-12-|
G-r-14b-r--12---------------12----------------12-----------|
D----------------------------------------------------------|
A----------------------------------------------------------|
E----------------------------------------------------------|
e------12-------12-12-----15-15-15-15-15-15-15-15-15-15-15-|
B------12-------12-12-----12-12-12-12-12-12-12-12-12-12-12-|
G--12-------12--12-12-12-----------------------------------|
D----------------------------------------------------------|
A----------------------------------------------------------|
E----------------------------------------------------------|
e-15-15-15-15--x-------------------------------------------|
B-12-12-12-12--x-x-12---15b-15-15-15-15-15r------15--------|
G--------------------------------(15)--------15b----r-15b--|
D----------------------------------------------------------|
A----------------------------------------------------------|
E----------------------------------------------------------|
e----------------------------------------------------------|
B-15-------15-------15-----------------13------------------|
G----r-15b----r-15b----15r---14b-r-14------16--14------14--|
D--------------------------------------------------15------|
A----------------------------------------------------------|
E----------------------------------------------------------|
e----------------------------------------------------------|
B----------13----------------------------------------------|
G-14b-14-r----16--14------(14)-14-----------14----------15b|
D--------------------15-15--------15-13-15-----15-15-15----|
A----------------------------------------------------------|
E----------------------------------------------------------|
e--------------------------------------------------|
B---------15-----15---15--15-----------------------|
G-r-15--x-15b--r-15---15--15-----------------------|
D--------------------------------------------------|
A--------------------------------------------------|
E--------------------------------------------------|


Verse 3:

 AmGAm
 Ain't had no fun jack jack jack jack jackin' around
 AmGAm
 Ain't had no fun(where's it at)
 Am
 It's down down, it's downstown

repeat Chorus:


Am G
variations - click chord images
Transpose chords:
Tuning:
Cool service:
View: Size:
A  A  A
Rating:
Layout:
  • Currently 3.5/5 Stars.
  • 1
  • 2
  • 3
  • 4
  • 5
 
Accuracy:
  • Currently 2.6/5 Stars.
  • 1
  • 2
  • 3
  • 4
  • 5
 
click stars to rate
Chordie recommends:
Learn how to play guitar at JamPlay.com
Songbook:
Login to add this song to your songbook
Support the artist
Preview/buy this song
MSN Music
Why this non-profit ad?

 
login to add comments/video/corrections