Guitar Tabs, Chords and Lyrics


L.O.V.E. Machine    W.A.S.P.



W.A.S.P.
Song:  "Love Machine"
Album: W.A.S.P.


Tune down a half step

Riff 1 4x
Gtr.1
Db-7--9------------12--9--
Ab-5--7------------10--7--
Then play Eb5 chord at the end and let it ring

Gtr.2
Gb-----------------12--9--
Db-7--9-------------------
Ab-5--7-------------------

Followed by the verse (no gtr.)

Riff 2 once
Db-12---7---9------------5------------5---7------------7---9------------12---7---
Ab-10---5---7------------3------------3---5------------5---7------------10---5---

Riff 3 4x
Db-7/9---------7/9-----------5---------7--------
Ab-5/7---2-2---5/7---2-2-----3---------5--------
Eb-------0-0---------0-0------------------------

Riff 3 ending
Db-5------5------5---7------7-----------9-------
Ab-3------3------3---5------5-----------7-------

Verse (no gtr.)
Riff 2 once
Riff 3 4x then ending

Riff 4 4x
Db---------------------------------------5--2---
Ab-2-2-2-2-2-2-2-2-2-2-2-2-2-2-2-2-2-2---3--0---

Riff 5 once
Gb----------------------------------------------------------------------2------------
Db----------------------------------------------------------------------0---2---4----
Ab-3-3-3-3-3-3-3-3-3-3-3-3-3-3-3-3-3-3-3-3-3-3-3-3-3-3-3-3-3-3-3-3-3--------0---2----
                          (once)                                           (4x)

Riff 3 4x then ending

Riff 6 3x
Db-----------5-5------0--3--2--0---------------------
Ab-2---------3-3------------------3--2--0---2--------
Eb-0----------------------------------------0--------


Important: The song above is NOT stored on the Chordie server. The original song is hosted at www.xguitar.com. Chordie works as a search engine and provides on-the-fly formatting. Chordie does not index songs against artists/composers will. To remove this song please click here.

This song is displayed as text-only. Transposing and tuning is only available for chordpro-songs.

Login - add to songbook

Rating click stars to rate

Layout
Accuracy

SHARE PAGE  




You need to log in to post comments