The Damage in Your Heart

Weezer

e|--7~--7h8-7-5~--5h7-5-3~--5-7h8-7-5~--|

B|--------------------------------------|
G|--------------------------------------|
D|--------------------------------------|
A|--------------------------------------|
E|--------------------------------------|

 EmCDBm
e|--0-------------0---------2------------------2-----------|
B|--0-------------1---------3------------------3-----------|
G|--0-------------0---------2------------------4-----------|
D|--2-------------2---------0------------------4-----------|
A|--2-------------3----------------------------2-----------|
E|--0------------------------------------------------------|

one more time... i have crossed the line now you
one more dream vanished up in smoke now I

 EmCD
e|--0-------------0------2-----------7*---------|
B|--0-------------1------3---------7*-----------|
G|--0-------------0------2-------5*-------------|
D|--2-------------2------0----------------------|
A|--2-------------3-----------------------------|
E|--0-------------------------------------------|

won't be mine... anymore (* 2nd Guitar does harmonics)
have no hope... anymore

chorus:
 GCDG
e|----------------------------------------------------7*--|
B|--------------------------------------------------7*----|
G|------------5------------7----------------------5*------|
D|--5---------5------------7---------------5--------------|
A|--5---------3------------5---------------5--------------|
E|--3--------------------------------------3--------------|

let it gooooooo the damage in your heaarrrrtt

 GCDG
e|-------------------------------------------------------7*--|
B|-----------------------------------------------------7*----|
G|------------5------------7-------------------------5*------|
D|--5---------5------------7---------------5----5------------|
A|--5---------3------------5---------------5----5------------|
E|--3--------------------------------------3----2------------|

let it gooooooo the damage in your heaarrrrtt

 EmAmDG
e|-----------------------------------------------------------|
B|-----------------------------------------------------------|
G|------------------------------7----------------------------|
D|--2-----------7---------------7------------------5----5----|
A|--2-----------7---------------5------------------5----5----|
E|--0-----------5----------------------------------3----2----|x2

i can't tell you how the words have made me feel

verse:
 EmCDBm
e|--0-------------0---------2------------------2-----------|
B|--0-------------1---------3------------------3-----------|
G|--0-------------0---------2------------------4-----------|
D|--2-------------2---------0------------------4-----------|
A|--2-------------3----------------------------2-----------|
E|--0------------------------------------------------------|

one more tear...falling down your face doesn't
one more loss... in a losing life doesn't

 EmCD
e|--0----------------0----------2-----------7*-----|
B|--0----------------1----------3---------7*-------|
G|--0----------------0----------2-------5*---------|
D|--2----------------2----------0------------------|
A|--2----------------3-----------------------------|
E|--0----------------------------------------------|

mean that much... to the world
hurt so bad... anymore

chorus:
 GCDG
e|----------------------------------------------------7*--|
B|--------------------------------------------------7*----|
G|------------5------------7----------------------5*------|
D|--5---------5------------7---------------5--------------|
A|--5---------3------------5---------------5--------------|
E|--3--------------------------------------3--------------|

let it gooooooo the damage in your heaarrrrtt

 GCDG
e|-------------------------------------------------------7*--|
B|-----------------------------------------------------7*----|
G|------------5------------7-------------------------5*------|
D|--5---------5------------7---------------5----5------------|
A|--5---------3------------5---------------5----5------------|
E|--3--------------------------------------3----2------------|

let it gooooooo the damage in your heaarrrrtt

 EmAmDG
e|-----------------------------------------------------------|
B|-----------------------------------------------------------|
G|------------------------------7----------------------------|
D|--2-----------7---------------7------------------5----5----|
A|--2-----------7---------------5------------------5----5----|
E|--0-----------5----------------------------------3----2----|x2

i can't tell you how the words have made me feel

solo:
e|----0~---00-7-5-5-5~--7/8--7-5-3--10-10-10-8-7-7h8-5~--17b18r17-15-13-13/15---------|
B|--0-------------------------------------------------------------------------15~-----|
G|------------------------------------------------------------------------------------|
D|------------------------------------------------------------------------------------|
A|------------------------------------------------------------------------------------|
E|------------------------------------------------------------------------------------|


 EmCDBm
e|--0-------------0---------2------------------2-----------|
B|--0-------------1---------3------------------3-----------|
G|--0-------------0---------2------------------4-----------|
D|--2-------------2---------0------------------4-----------|
A|--2-------------3----------------------------2-----------|
E|--0------------------------------------------------------|

one more tear...falling down your face doesn't

 EmCD
e|--0----------------0----------2-----------7*-----|
B|--0----------------1----------3---------7*-------|
G|--0----------------0----------2-------5*---------|
D|--2----------------2----------0------------------|
A|--2----------------3-----------------------------|
E|--0----------------------------------------------|

mean that much... to the world

chorus:
 GCDG
e|----------------------------------------------------7*--|
B|--------------------------------------------------7*----|
G|------------5------------7----------------------5*------|
D|--5---------5------------7---------------5--------------|
A|--5---------3------------5---------------5--------------|
E|--3--------------------------------------3--------------|

let it gooooooo the damage in your heaarrrrtt

 GCDG
e|-------------------------------------------------------7*--|
B|-----------------------------------------------------7*----|
G|------------5------------7-------------------------5*------|
D|--5---------5------------7---------------5----5------------|
A|--5---------3------------5---------------5----5------------|
E|--3--------------------------------------3----2------------|

let it gooooooo the damage in your heaarrrrtt

 EmAmDG
e|-----------------------------------------------------------|
B|-----------------------------------------------------------|
G|------------------------------7----------------------------|
D|--2-----------7---------------7------------------5----5----|
A|--2-----------7---------------5------------------5----5----|
E|--0-----------5----------------------------------3----2----|x2

i can't tell you how the words have made me feel

 EmAmDG
e|-----------------------------------------------------------|
B|-----------------------------------------------------------|
G|------------------------------7----------------------------|
D|--2-----------7---------------7------------------5----5----|
A|--2-----------7---------------5------------------5----5----|
E|--0-----------5----------------------------------3----2----|

i can't tell yooooouuuu i can't tell youuuuuuuuuu
i can't tell you how the words have made me feel

i don't know that ending thingy.. sorry
but yeah.. enjoy
alos check out my bands yo dawg
http://www.myspace.com/ifonlysober
http://www.myspace.com/thefederalis


Am Bm C D Em G
variations - click chord images
Transpose chords:
Tuning:
Cool service:
View: Size:
A  A  A
Rating:
Layout:
  • Currently 2.4/5 Stars.
  • 1
  • 2
  • 3
  • 4
  • 5
 
Accuracy:
  • Currently 3.1/5 Stars.
  • 1
  • 2
  • 3
  • 4
  • 5
 
click stars to rate
Chordie recommends:
Get acoustic guitar lessons and electric guitar lessons at JamPlay.com
Songbook:
Login to add this song to your songbook
Support the artist
Preview/buy this song
MSN Music
Why this non-profit ad?

 
login to add comments/video/corrections