My Best Friend

Weezer

 B5
e -----------------|
B -----------------|
G --4--4------2----|  x 4  w/ organ
D --4--4--2^4---4--|
A --2--2-----------|
E -----------------|


 B5F#5E5B5
 When everything is wrong
 F#5E5B5F#5E5B5F#5E5
I come talk to you                  
You make things alright
When I'm feelin' blue

 G#mF#
 You are such a blessing
G#m F# stop
And I won't be messing
 BA
With the one thing that brings
G#m F# E F# stop
Light to all my darkness

B (staccato)
You're my best friend
 C#m
  And I love you (love you)
 E
  And I love you (love you)
 BF#
  Yes I doooo   

B5 F#5 E5 x 4 w/ organ

There is no other one
Who can take your place
I feel happy inside
When I see your face

I hope you believe me
'Cause I speak sincerely
And I mean it when I
Tell you I need you

Chorus

Intro riff x 8 w/ solo

I'm here right beside you (soft)
I will never leave you
And I feel the pain you feel (normal)
When you start cryin'

Chorus x 2 (2nd time: continuous)

 BF#
  Yes I doooo   
B F# B \
Yes I do

 -----
 Visit "Le grimoire du plaisir" for more songs in French and English

http://www.math.mcgill.ca/~chenever/grimoire

keep on rockin'

 Gab

==================================================================

Song: My Best Friend
Band: Weezer
Album: Make Believe
Tuning: Standard
Legend: * = palm mute, ~ = let ring, / = slide down, = slide up,
h = hammer-on, p = pull-off, b = bend, rb = release bend
Guitar 1 on top, Guitar 2 on bottom

0:00 Intro
e|---------|
B|---------|
G|---------|

D|-8-8-666-|
A|-8-8-666-|
E|-6-6-444-|
|0:00
e|-------|
B|-------|
G|-------| [x4]
D|----6--|

A|-6h8--8|
E|-------|


0:07 Verse
e|---------------|
B|---------------|
G|---------------|
D|-8-8-66-6-3----|
A|-8-8-66-6-3----|
E|-6-6-44-4-1----|

|0:10 0:17
e|-------------------------|----------------------------|
B|-------------------------|----------------------------|
G|-7---8-7---10---8-7---7--|-7---8-7---10---8-7---------|
D|---8-----8----8-----8----|---8-----8----8-----8---7-8-|
A|-------------------------|----------------------------|
E|-------------------------|----------------------------|


0:21
e|-----------------------------------------|
B|-----------------------------------------|
G|-----------------------------------------|
D|-88888888-66666666-88888888-66666666-----|
A|-88888888-66666666-88888888-66666666-----|
E|-66666666-44444444-66666666-44444444-----|

|
e|-------|
B|-------|
G|-------|
D|-------|
A|-------|
E|-------|


0:28
e|---------------------------------------|
B|---------------------------------------|
G|---------------------------------------|
D|-8888-6666-5555-3333-22222222-33333333-|
A|-8888-6666-5555-3333-22222222-33333333-|
E|-6666-4444-3333-1111-00000000-11111111-|

|
e|---------------------------------------|
B|---------------------------------------|
G|-7777-5555-3333-2222-77777777-55555555-|
D|---------------------------------------|
A|---------------------------------------|
E|---------------------------------------|


0:36 Chorus
e|-------------------------------------------|
B|-------------------------------------------|
G|----------55555555----------5555-----------|
D|-88888888-55555555-88888888-5555-88888888--|
A|-88888888-33333333-88888888-3333-88888888--|
E|-66666666----------66666666------66666666--|

|
e|-------------------------------------|
B|-------------------------------------|
G|-------------------------------------|
D|-guitar 2 can play the same or-------|
A|--play nothing... it's up to you-----|
E|-------------------------------------|


0:50 Verse
e|---------------|
B|---------------|
G|---------------|
D|-8-8-66-6-3----|
A|-8-8-66-6-3----|
E|-6-6-44-4-1----|

|1:01 1:08
e|-------------------------|----------------------------|
B|-------------------------|----------------------------|
G|-7---8-7---10---8-7---7--|-7---8-7---10---8-7---------|
D|---8-----8----8-----8----|---8-----8----8-----8---7-8-|
A|-------------------------|----------------------------|
E|-------------------------|----------------------------|


1:12
e|-----------------------------------------|
B|-----------------------------------------|
G|-----------------------------------------|
D|-88888888-66666666-88888888-66666666-----|
A|-88888888-66666666-88888888-66666666-----|
E|-66666666-44444444-66666666-44444444-----|

|
e|-------|
B|-------|
G|-------|
D|-------|
A|-------|
E|-------|


1:19
e|---------------------------------------|
B|---------------------------------------|
G|---------------------------------------|
D|-8888-6666-5555-3333-22222222-33333333-|
A|-8888-6666-5555-3333-22222222-33333333-|
E|-6666-4444-3333-1111-00000000-11111111-|

|
e|---------------------------------------|
B|---------------------------------------|
G|-7777-5555-3333-2222-77777777-55555555-|
D|---------------------------------------|
A|---------------------------------------|
E|---------------------------------------|


1:26 Chorus
e|-------------------------------------------|
B|-------------------------------------------|
G|----------55555555----------5555-----------|
D|-88888888-55555555-88888888-5555-88888888--|
A|-88888888-33333333-88888888-3333-88888888--|
E|-66666666----------66666666------66666666--|

|
e|-------------------------------------|
B|-------------------------------------|
G|-------------------------------------|
D|-guitar 2 can play the same or-------|
A|--play nothing... it's up to you-----|
E|-------------------------------------|


 wab
  1:41 Solo  
e|------------|
B|------------|
G|------------|
D|-88----6----| [played through the entire solo]
A|-88-6h8--8--|
E|-66---------|

|
e|--------------------------------------------------------------|
B|-15-15-15-16-15-13--11----9------15-15-15-16-15-13--11----9---|
G|-----------------------11---9--------------------------11---9-|
D|------------------------------9-------------------------------|
A|--------------------------------------------------------------|
E|--------------------------------------------------------------|


1:48
e|---------|
B|---------|
G|---------|
D|---------|
A|---------|
E|---------|

|
e|-15b16rb15-13---------------------------------|
B|-------------16-13-15-15b16rb15-13--13--12----|
G|----------------------------------13--12--12--| [x2]
D|----------------------------------------------|
A|----------------------------------------------|
E|----------------------------------------------|


1:55
e|----------------|
B|----------------|
G|----------------|
D|-11-9/12-10~~---|
A|----------------|
E|----------------|

|2:00
e|-----------------------------|
B|-----------------------------|
G|------7-8-10-8-7----7-10~~~--|
D|-8-10------------10----------|
A|-----------------------------|
E|-----------------------------|


2:02
e|---------------------------------------|
B|---------------------------------------|
G|---------------------------------------|
D|-8888-6666-5555-3333-22222222-33333333-|
A|-8888-6666-5555-3333-22222222-33333333-|
E|-6666-4444-3333-1111-00000000-11111111-|

|2:06
e|---------------------------------------|
B|---------------------------------------|
G|-7-7-7-7-7-8-7-7-55555555--------------|
D|---------------------------------------|
A|---------------------------------------|
E|---------------------------------------|


2:09 Chorus 2:38
e|----------------------------------------------|----------------|
B|----------------------------------------------|----------------|
G|----------55555555----------5555--------------|--5555----------|
D|-88888888-55555555-88888888-5555-88888888-[x2]|--5555-88888888-|
A|-88888888-33333333-88888888-3333-88888888-----|--3333-88888888-|
E|-66666666----------66666666------66666666-----|-------66666666-|

|2:24
e|--------------------------|
B|-----6------------8-------| [ play variations of
G|---7---7-------8-----8----|   this; it's really too
D|--8-8-8-8----10-10-10-10--|   quiet to hear most of it.]
A|-8---------10-------------|
E|--------------------------|


2:41 Outro
e|---------------|
B|---------------|
G|---------------|

D|-1010-88-10~-|
A|-1010-88-10~-|
E|-8-8--66-8~~-| [both guitars]



A B B5 C#m E E5 F# F#5 G#m
variations - click chord images
Transpose chords:
Tuning:
Cool service:
View: Size:
A  A  A
Rating:
Layout:
  • Currently 1/5 Stars.
  • 1
  • 2
  • 3
  • 4
  • 5
 
Accuracy:
  • Currently 1/5 Stars.
  • 1
  • 2
  • 3
  • 4
  • 5
 
click stars to rate
Chordie recommends:
Learn how to play guitar at JamPlay.com
Songbook:
Login to add this song to your songbook
Support the artist
Preview/buy this song
MSN Music
Why this non-profit ad?

 
login to add comments/video/corrections