Chordie logo
content loaded from cache

The Other Way  Weezer

-----------------------------------------------------------------------------



-----------------------------------------------------------------------------









         [B]        [E]        [C#5]        [F#5]                                                   
eb|------7-------7--------4------9------------------------------------------|
Bb|------7-------9--------4------9------------------------------------------|
Gb|------8-------9--------5------11-----------------------------------------|
Db|------9-------9--------5------11-----------------------------------------|
Ab|------9-------7--------4------9------------------------------------------|
Eb|------7-------7--------4------9------------------------------------------|


Verse (x 2)
      ([E5]I wanna to[F#5] help you.... [B5]but I don't know how...)
(I want to soothe you... but I can't speak out...)

eb|-----7-7-7-7-/-9--9--9--9----7-7-7-7-------------------------------------|
Bb|-----7-7-7-7-/-9--9--9--9----7-7-7-7-------------------------------------|
Gb|-----9-9-9-9-/-11-11-11-11---8-8-8-8-------------------------------------|
Db|-----9-9-9-9-/-11-11-11-11---9-9-9-9---\-------6-------------------------|
Ab|-----7-7-----/-9--9----------9-9-------\-------6----6-6-6h7p6-4----------|
Eb|-----7-7-----/-9--9----------7-9-------\-------4-------------------------|


Pre-Chorus

      ([E5]I have many fears about rejection... [B5]I have many memories Of pain...)
eb|-----7-------------------------------------------------------------------|
Bb|-----7-------------------------------------------------------------------|
Gb|-----9------------------------------------8------------------------------|
Db|-----9------------------------------------9------------------------------|
Ab|-----7------------------------------------9------------------------------|
Eb|-----7------------------------------------7------------------------------|


(I hav[E5]e always been a little shy...  So I'[F#5]ll turn and look the other way...)
eb|-----7------------------------------------9------------------------------|
Bb|-----7------------------------------------9------------------------------|
Gb|-----9------------------------------------11-----------------------------|
Db|-----9------------------------------------11-----------------------------|
Ab|-----7------------------------------------9------------------------------|
Eb|-----7------------------------------------9------------------------------|



Chorus
      [B5]    (O[E5]the[E5/D#]r way.[C#5].. Ot[F#5]her way)
eb|-------------------------------------------------------------------------|
Bb|-------------------------------------------------------------------------|
Gb|---8----9-9-\--6------11-------------------------------------------------|
Db|---9----9-9-\--6------11-------------------------------------------------|
Ab|---9----7-6-\--4------9--------------------------------------------------|
Eb|---7------------------9--------------------------------------------------|


      ([E5]I will turn and lo[C#5]ok the other [F#5]way...)
eb|-----7----------------4-------------9------------------------------------|
Bb|-----7----------------4-------------9------------------------------------|
Gb|-----9----------------6-------------11-----------------------------------|
Db|-----9----------------6-------------11-----------------------------------|
Ab|-----7----------------4-------------9------------------------------------|
Eb|-----7----------------4-------------9------------------------------------|


Verse 2 (same riff as Verse 1)

I want to hold you
But I am afraid
I want to touch you
But I'm not that way

**SOLO**

Pre-Chorus 2 (same riff as Pre-Chorus 1)

I have many doubts... About my motives
I have many fears... About my greed

I have always hurt... The one that I love
So I'll turn and look the other way

Chorus

Other way
Other way
I will turn and look the other way

Repeat Pre-Chorus 2
Chorus


| / slide up
| \ slide down
| h hammer-on
| p pull-off
| ~ vibrato
| + harmonic
| x Mute note
=============================================================================

Important: The song above is NOT stored on the Chordie server. The original song is hosted at www.xguitar.com. Chordie works as a search engine and provides on-the-fly formatting. Chordie does not index songs against artists/composers will. To remove this song please click here.

B B5 C#5 E E5 F#5
variations - click chord images

Transpose chords

Tuning

Rating click stars to rate

Layout
Accuracy

SHARE PAGE  

You need to log in to post comments