Chordie logo

Perfect Situation   Weezer



Weezer - Perfect Situation (Make Believe)

This is one of the best songs on the album.

Intro x4

E|-----------------------------------------------------
B|-----------------------------------------------------
G|--------------------6-6-6-6-6-6-6-6------------------
D|---4-4-4-4-4-4-4-4--6-6-6-6-6-6-6-6--6-6-6-6-6-6-6-6-
A|---2-2-2-2-2-2-2-2--4-4-4-4-4-4-4-4--6-6-6-6-6-6-6-6-
E|---2-2-2-2-2-2-2-2-------------------4-4-4-4-4-4-4-4-

E|--------------------|
B|--------------------|
G|---6-6-6-6-6-6-6-6--|
D|---6-6-6-6-6-6-6-6--|
A|---4-4-4-4-4-4-4-4--|
E|--------------------|

Intro solo (2nd Guitar)

E|--------------------------------------------------------------------
B|--------------------------------------------------------------------
G|--------------------------------------------------------------------
D|-------4-4-4-4-4-4-3-3-3-4-4-/8-8-8-8-8-8b-(8)-6-6-6-6-8-8-9-9-11-11
A|---4-6--------------------------------------------------------------
E|--------------------------------------------------------------------

E|--------------------------------------------------------------------
B|--------------------------------------------------------------------
G|--------------------------------8-8-10-10-11-11-11-11-11-11b-(11)-10
D|--11-11-11-11-11-11-11-11-11-11-------------------------------------
A|--------------------------------------------------------------------
E|--------------------------------------------------------------------

E|--------------------------------------------------------------9-9-7-
B|--------------------9-9-11-11-11-11-11-11b-(11)-9-9-9-9-9-9-9-------
G|--10-10-10-10-11-11-------------------------------------------------
D|--------------------------------------------------------------------
A|--------------------------------------------------------------------
E|--------------------------------------------------------------------


E|--6-7-6---9-9-7-6-7-6---------------------14---------------14-------
B|----------------------9-7--------14-14h16---------14-14h16----------
G|--------------------------------------------------------------------
D|---------------------------------------------16---------------16----
A|--------------------------------------------------------------------
E|--------------------------------------------------------------------

E|--------------------------------------------------------------------
B|--14-14h16p14-------------------------------------------------------
G|--------------------------------------------------------------------
D|-------------------------16-----------------------------------------
A|--------------------------------------------------------------------


Important: The song above is NOT stored on the Chordie server. The original song is hosted at www.xguitar.com. Chordie works as a search engine and provides on-the-fly formatting. Chordie does not index songs against artists/composers will. To remove this song please click here.

This song is displayed as text-only. Transposing and tuning is only available for chordpro-songs.

Login - add to songbook

Rating click stars to rate

Layout
Accuracy

SHARE PAGE  

You need to log in to post comments