Chordie logo

We Are All on Drugs   Weezer



This is a great song to play, it sounds great and is easy to do.

Intro/Brigde 2:

e|-------------------|-------------------|
B|----6-7---6-7---7--|------7-----7---7--|
G|--8-----8-----8----|--5-8---5-8---5----|
D|-------------------|-------------------|
A|-------------------|-------------------|
E|-------------------|-------------------|


Verse/Chorus:

palm mute on verse
e|-------------------------------------------|
B|-------------------------------------------|
G|--8-8-8-8-8-8-8-8--------------------------|
D|--8-8-8-8-8-8-8-8-10-10-10-10-10-10-10-10--|
A|--6-6-6-6-6-6-6-6-10-10-10-10-10-10-10-10--|
E|-------------------8--8--8--8--8--8--8--8--|

e|-------------------------------------------|
B|-------------------------------------------|
G|-------------------------------------------|
D|--9-9-9-9-9-9-9-9-10-10-10-10-10-10-10-10--|
A|--9-9-9-9-9-9-9-9-10-10-10-10-10-10-10-10--|
E|--7-7-7-7-7-7-7-7--9--9--9--9--9--9--9--9--|


Bridge 1:

e|---------------------------------------------------|
B|---------------------------------------------------|
G|---------------------------------------------------|
D|--6-6-6-6-6-6-6-6-8-8-8-8-8-8-8-8-9-9-9-9-9-9-9-9--|
A|--6-6-6-6-6-6-6-6-8-8-8-8-8-8-8-8-9-9-9-9-9-9-9-9--|
E|--4-4-4-4-4-4-4-4-6-6-6-6-6-6-6-6-7-7-7-7-7-7-7-7--|

play first time on bridge only
e|-------------------|
B|-------------------|
G|-------------------|
D|--9-9-9-9-9-9-9-9--|
A|--9-9-9-9-9-9-9-9--|
E|--7-7-7-7-7-7-7-7--|

play second time on bridge only
e|------------|
B|------------|
G|------------|
D|--11----12--|
A|--11----12--|
E|---9----10--|


Solo:

e|----------------------------|---------------------|
B|----------------------------|--------------11-14--|
G|--13^----13-11-13-11--------|--------11-13--------|
D|---------------------13-13--|--13-----------------|
A|----------------------------|---------------------|
E|----------------------------|---------------------|

e|--------11-9-----11-9--|-----13-11------13-11------13-11------13-11--|
B|--14-11-------11-------|--11---------11---------11---------11--------|
G|-----------------------|---------------------------------------------|
D|-----------------------|---------------------------------------------|
A|-----------------------|---------------------------------------------|
E|-----------------------|---------------------------------------------|

e|--11-13-11-14-16hp14-16^-16-16-14-16-14-11-9-11--|
B|-------------------------------------------------|
G|-------------------------------------------------|
D|-------------------------------------------------|
A|-------------------------------------------------|
E|-------------------------------------------------|


Outro:


e|------------|-------------------|-----------------------------------|
B|------6-6^--|----6-7---6-7---7--|--8------7---6---8------7---6------|
G|--5-8-------|--8-----8-----8----|--------------------------------8--|
D|------------|-------------------|-----------------------------------|
A|------------|-------------------|-----------------------------------|
E|------------|-------------------|-----------------------------------|


Finish Chord:

e|-----|
B|-----|
G|--8--|
D|--8--|
A|--6--|


Important: The song above is NOT stored on the Chordie server. The original song is hosted at www.xguitar.com. Chordie works as a search engine and provides on-the-fly formatting. Chordie does not index songs against artists/composers will. To remove this song please click here.

This song is displayed as text-only. Transposing and tuning is only available for chordpro-songs.

Login - add to songbook

Rating click stars to rate

Layout
Accuracy

SHARE PAGE  



You need to log in to post comments