December

Weezer

 GC
E-------------------------------------------------------------
B-------------------------------------------------------------
G-------4-------------9---------------------------------------
D-----5---5--------10---10------------------------------------  REPEAT
A---5-------5---10---------10---------------------------------
E-3-----------8-----------------------------------------------


Verse (2):

 GCAmD
E-------------------------------------------------------------
B-----------------------------------------------7/8\7---------
G-------4-------------9-------------5---------7-----7---------
D-----5---5--------10---10--------7---7-----7---------7-------  REPEAT
A---5-------5---10---------10---7-------7-5-------------------
E-3-----------8---------------5-------------------------------


Chorus (3):

 BmEm
E-------------------------------------------------------------
B-------3-----------3-----------0-----------0-----------------
G-----4---4-------4---4-------0---0-------0---0---------------
D---4-------4---4-------4---2-------2---2-------2-------------
A-2-----------2-----------------------------------------------
E-------------------------0-----------0-----------------------


 AmD
E-------------------------------------------------------------
B-------------------------------7-----------7-----------------
G-------5-----------5---------7---7-------7---7---------------
D-----7---7-------7---7-----7-------7---7-------7-------------
A---7-------7---7-------7-5-----------5-----------------------
E-5-----------5-----------------------------------------------


Bridge: (4)

 CCGGDD
E-------------------------------------------------------------
B------------------------------------------------7----------7-
G-9----------9------------4-----------4----------7----------7-
D-10---------10-----------5-----------5----------7----------7-
A-10---------10-----------5-----------5----------5----------5-
E-8----------8------------3-----------3-----------------------


Solo (5):

 GCAmDG
E-------------------------------------------------------------
B-------------------------------------------------------------
G-----4v------------------------------------------------4v----
D-5-7------------------5-7-7-575-------------------5-75-------
A----------------5/7-7-----------7v-----5v-----5-7------------
E-------------------------------------------------------------


 CAmD
E-------------------------------------------------------------
B-------------------------------------------------------------
G-7b9-99r7-545------------------------------------------------
D--------------7v---------------------------------------------
A-----------------------5v------------------------------------
E-------------------------------------------------------------


Here is the order of the song parts:

Intro (1)
Intro (1)
Verse (2)
Verse (2)
Chorus (3)
Verse (2)
Intro (1)
Verse (2)
Verse (2)
Chorus (3)
Verse (2)
Intro (1)
Bridge (4)
Intro (1)
Solo (5) (One guitar is playing the solo, another plays the verse)
Chorus (3)
Verse (2)
Verse (2)
Verse (2)
Verse (2)


Am Bm C D Em G
variations - click chord images
Transpose chords:
Tuning:
Cool service:
View: Size:
A  A  A
Rating:
Layout:
  • Currently 2.8/5 Stars.
  • 1
  • 2
  • 3
  • 4
  • 5
 
Accuracy:
  • Currently 2.6/5 Stars.
  • 1
  • 2
  • 3
  • 4
  • 5
 
click stars to rate
Chordie recommends:
Check out these online guitar lessons
Songbook:
Login to add this song to your songbook
Support the artist
Preview/buy this song
MSN Music
Why this non-profit ad?

 
login to add comments/video/corrections