Guitar Tabs, Chords and Lyrics
Major upgrade!! After one year development the new version of Chordie is now online! Please give feedback.


Love Explosion  Weezer

Verse-
Guitar 1-
[A5] [F#5] [E5] [A5] [F#5] [E5] [A5]  
 
 e-------------------------------------------------------------------------------
 b-------------------------------------------------------------------------------
 g----7-6-4-2---------------------------7-6---4--2-------------------------------
 d--7----------------4----2----------7-------------------4--------2-----------7--
 a--7----------------4----2-2-----0--7-------------------4--------2-----------7--
 E--5----------------2----0---0h2----5-------------------2--------0-----------5--

Take a listen, around you... all the people that crowd around in your house
[F#5] [E5] [D5] [E5] [A5]  
 
 e-------------------------------------------------------------
 b-------------------------------------------------------------
 g--7--6---4---2------------------------------------7---9------
 d-------------------------4---2--------------------7---9---7---
 a-------------------------4---2--------------------5---7---7---
 E-------------------------2---0----------------------------5---

They've been wanting to kill you in your sleep...
 
 Guitar 2- e----5---5---5---5-
 b-5h7-5h7-5h7-5h7--
 g------------------
 d------------------
 a------------------
 E------------------

Verse2 - (same guitar as 1st verse)
Take a load off, and bow down
to the others, who love to call you their names
they've been wanting to kill you in your sleep
Chorus-
[A5] [B5] [E5]  
 
 e---------------------------------------------------------------------------
 b---------------------------------------------------------------------------
 g---7--------------------------------------------------------------9--------
 d---7------------------------------------9-------------------------9--------
 a---5------------------------------------9-------------------------7--------
 E----------------------------------------7----------------------------------

And all the bull that people sling... It doesn't matter what they sling...
[A5] [E5] [D5]  
 
 e----------------------------------------------
 b----------------------------------------------
 g-------------------9------7-------------------
 d-----7-------------9------7-------------------
 a-----7-------------7------5-------------------
 E-----5----------------------------------------

So jump out, jump out get your groove on
[A5] [E5] [D5]  
 
 e----------------------------------------------
 b----------------------------------------------
 g----------------9---7-------------------------
 d---7------------9---7-------------------------
 a---7------------7---5-------------------------
 E---5------------------------------------------

This song is for you, so come on
[A5] [E5] [D5] [A5]  
 
 e----------------------------------------------
 b----------------------------------------------
 g--------------9------7------------------------
 d--7-----------9------7---------------7--------
 a--7-----------7------5---------------7--------
 E--5----------------------------------5--------

Get out your house girl, and give me a kiss...
 
 e----------------
 b----------------
 g----------------
 d--7--5--4--5----
 a--7--5--4--5----
 E--5--3--2--3----

pm.................................................................................
 
 -5-5-5-444-2--------------------------------------------------------------------------------------
 ---------------2h3h5-3h5h7-5h7h9--7h9h10--9h10h12--10h12h14--12h14h15--14h15h17--15h17h19--17h19--
 --------------------------------------------------------------------------------------------------
 --------------------------------------------------------------------------------------------------
 --------------------------------------------------------------------------------------------------
 --------------------------------------------------------------------------------------------------
 -----16vvv---14-16-17---16-17-19--17-19---19b(20)r19-
 -----------------------------------------------------
 -----------------------------------------------------
 -----------------------------------------------------
 -----------------------------------------------------
 -----------------------------------------------------
 --19p17-----17-----------------------------------------------------------------------------
 ---------19----19--17-19p17-----17---------------------------------------------------------
 -----------------------------18----18--16--18p16----16-------------------------------------
 -------------------------------------------------19----19--16-----16-----------------------
 ---------------------------------------------------------------19----19--16----16----------
 ----------------------------------------------------------------------------19----19---17--


Important: The song above is NOT stored on the Chordie server. The original song is hosted at www.xguitar.com. Chordie works as a search engine and provides on-the-fly formatting. Chordie does not index songs against artists'/composers' will. To remove this song please click here.

Text color:
Chord color:
Chord grids: 
Font size:    
Page size: 

A5 B5 D5 E5 F#5
Rate #2 of 2 versions

Jango Player

Login - add to songbook

SHARE PAGE  




You need to log in to post comments