Hash Pipe

Weezer

E|----------------|--------------|--------------|--------------|---------------|

B|----------------|--------------|--------------|--------------|---------------|

G|----------------|--------------|--------------|--------------|---------------|

D|---0--0--2--3---|--0--0--2--3--|--0--0--2--3--|--0--0--2--3--|--0--0--2--3---|

A|---0--0--2--3---|--0--0--2--3--|--0--0--2--3--|--0--0--2--3--|--0--0--2--3---|

E|----------------|--------------|--------------|------------------------------|

E|---------------------------||--------------|--------------|--------------|

B|---------------------------||--------------|--------------|--------------|

G|--7--7--7--7--7--7--7--7--7||--------------|--------------|--------------|

D|--7--7--7--7--7--7--7--7--7||--7--7--9--10-|--7--7--9--10-|--7--7--9--10-|

A|--5--5--5--5--5--5--5--5--5||--7--7--9--10-|--7--7--9--10-|--7--7--9--10-|

E|---------------------------||--5--5--7--8--|--5--5--7--8--|--5--5--7--8--|

E|--------------||--------------------------------|

B|--------------||--------------------------------|

G|--------------||--7--7--7--7--7--7--7--7--7--7--|       

D|--7--7--9--10-||--7--7--7--7--7--7--7--7--7--7--|

A|--7--7--9--10-||--5--5--5--5--5--5--5--5--5--5--|

E|--5--5--7--8--||--------------------------------|

E|-------------|----------|----------|----------|----------|

B|-------------|----------|----------|----------|----------|

G|--10-10-10-10|9--9--9--9|7--7--7--7|5--5--5--5|4--4--4--4|

D|--10-10-10-10|9--9--9--9|7--7--7--7|5--5--5--5|4--4--4--4|

A|--8--8--8--8-|7--7--7--7|5--5--5--5|3--3--3--3|2--2--2--2|

E|--8--8--8--8-|7--7--7--7|5--5--5--5|3--3--3--3|2--2--2--2|

E|--3--3--3--3--3--3--3--3--|

B|--3--3--3--3--3--3--3--3--|

G|--4--4--4--4--4--4--4--4--|

D|--5--5--5--5--5--5--5--5--|

A|--5--5--5--5--5--5--5--5--|

E|--3--3--3--3--3--3--3--3--|

E|----------------------------------------------12-12-12-12-10-10-10-10--

B|--13-13-13-13-12-12-12-12-10-10-10-10-8-8-8-8--------------------------

G|-----------------------------------------------9--9--9--9--7--7--7--7--

D|--10-10-10-10--9--9--9--9--7--7--7--7-5-5-5-5--------------------------

A|-----------------------------------------------------------------------

E|-----------------------------------------------------------------------

E|-----------------|---------------|-----------------|------------------|

B|-----------------|---------------|-----------------|------------------|

G|-----------------|---------------|-----------------|------------------|

D|--5--5--5--5--5--|--4--4--4--4--4|--2--2--2--2--2--|---0--0--0--0--0--|

A|-----------------|---------------|-----------------|------------------|

E|-----------------|---------------|-----------------|------------------|

E|--------------|--------------|--------------|--------------||

B|--------------|--------------|--------------|--------------||

G|--4--4--4--4--|--2--2--2--2--|--4--4--4--4--|--2--2--2--2--||

D|--------------|--------------|--------------|--------------||

A|--------------|--------------|--------------|--------------||

E|--------------|--------------|--------------|--------------||


i'm just posting this because it sound right and is a lot easier
to play then the version you already had posted. just the main riff
though. and prechorus. but nothing else.
keep up the goodwork taborama.com! peace :D
           e[----------]           e[----------]
           b[----------]           b[----------]
           g[----------]           g[----------]
           d[-7-7-9-10-] X 3 then  d[-7-7-9s10-]
           a[-7-7-9-10-]           a[-7-7-9s10-]
           E[-5-5-7-8--]           E[-5-5-7s8--]

pm..... pm.
repeat x2 for intro
           e[----------]           e[----------]
           b[----------]           b[----------]
           g[----------]           g[----------]
           d[-7-7-9-10-] X 7 then  d[-7-7-9s10-]
           a[-7-7-9-10-]           a[-7-7-9s10-]
           E[-5-5-7-8--]           E[-5-5-7s8--]

pm..... pm.
           e[----------]
           b[----------]
           g[----------]           

 -7-7-9-10-
           d X 8 (on last time, release palm mute)
 -7-7-9-10-
           a 
           E[-5-5-7-8--]           

pm.....
 ---
           e [                   -]
 ---
           b [                   -]
 ---
           g [                   -]
 -7-
           d [                   -]
 -7-
           a [                   -]
 -5- (a buncb of times) -
           E 
then main riff without palm mute
           e[----------]
           b[----------]
           g[----------]           

 -7-7-9-10-
           d x4
 -7-7-9-10-
           a 
           E[-5-5-7-8--]

and the rest of the tab is pretty easy to play, so i don't need to change it.
============================================================================
Hash Pipe - Weezer
Tabbed by Adam Bishop
Okay, after watching the video, and watching them on Saturday Night Live
(about
5 minutes ago), I realized I was wrong about the Drop D. And I could still
be
wrong about the bass notes on those chords, I can't really tell from the
video
or from Saturday Night Live, but it sounds good and it's something Weezer
would
do. I also left out the last part of the solo so that's fixed too, and the
bridge
is fixed as well. I still can't figure out some of the lyrics, though.
D5/A - 5577xx
F5/C  - 8-8-10-10-x-x  

E5/B - 7799xx
C5/G - 3355xx
B5/F# - 3244xx
Main riff:
E|--------------------------
B|--------------------------
G|--------------------------
D|--2--0--4--5--2--0--4--5--
A|--0--0--2--3--0--0--2--3--
E|--------------------------  

Can't help my feelings I go out of my mind
There's beds out to get me cause they like my behind (?)
I tear up my business if I can't get a trick
Down on Santa Monica where Trix are for kids
D5/A (main riff)
Oh oh whoa, come on and kick me
 D5/AF5/C
 Oh oh whoa, come on and kick me   
 E5/B
Come on and kick me   
 D5/A
You got your problems   
 C5/G
I got my ass wiped   
 B5/F#
You got your big cheese   
I got my hash pipe
(Main riff)
I can't help my boogies they get out of control (?)
I know that you don't care but I want you to know
That mean stocking flavour is a favourite treat (?)
Oh man now don't bother with the taste of the teat (?)
Chorus
Bridge:
E|--------------------------------------------------
B|--------------------------------------------------
G|--4--5--4--5--4--5--4--5--4--5--4--5--4--5--4--5--
D|--5--5--5--5--5--5--5--5--5--5--5--5--5--5--5--5--
A|--------------------------------------------------
E|--------------------------------------------------  

Oh I got my hash pipe
(main riff)
Solo (with main riff)
E|----------------------------------------------12-12-12-12-10-10-10-10--
B|--13-13-13-13-12-12-12-12-10-10-10-10-8-8-8-8--------------------------
G|-----------------------------------------------9--9--9--9--7--7--7--7--
D|--10-10-10-10--9--9--9--9--7--7--7--7-5-5-5-5--------------------------
A|-----------------------------------------------------------------------
D|-----------------------------------------------------------------------
E|--8-8-8-8-7-7-7-7-15-15-15-15-14-14-14-14-12-12-12-12-10-10-10-10--
B|-------------------------------------------------------------------
G|--5-5-5-5-4-4-4-4-12-12-12-12-11-11-11-11--9--9--9--9--7--7--7--7--
D|-------------------------------------------------------------------
A|-------------------------------------------------------------------
D|-------------------------------------------------------------------
E|---------------------------------------------------
B|--12-12-12-12-10-10-10-10-12-12-12-12-10-10-10-10--
G|---------------------------------------------------
D|---9--9--9--9--7--7--7--7--9--9--9--9--7--7--7--7--
A|---------------------------------------------------
D|---------------------------------------------------  

Chorus
Riff 2
Main riff
I got my hash pipe
I got my hash pipe
http://www.angelfire.com/mi/Grenfell/guitar.html
===================================================================================
Author/Artist: Weezer
Title: Hash pipe
Album: The green album
Transcribed by: Ben L.
Email: milkman098@homestead.com
In dropped D
For the chorus, I put the line of lyrics at which you change chords, so go by that.
The guitars go on until then, and I can't count how many times they play.
order:
intro/ vers
chorus
vers
chorus
solo(over vers)
chorus
vurs until end
----------------|--------------------------------|------------|---------------
----------------|--------------------------------|------------|---------------
----------------|--------------------------------|------------|---------------
-0x0x--2x3x-----|---5-5--x-5--5--5---------------|0--0---2-3--|---------------
-0x0x--2x3x-----|---5-5--x-5--5--5---------------|0--0---2-3--|---------------
-0x0x--2x3x-----|---5-5--x-5--5--5---------------|0--0---2-3--|---------------  

Intro / vers Chorus"oh..common and take me.." Fill
--------------------|-------------------------|-------------------------------
--------------------|-------------------------|-------------------------------
--------------------|-------------------------|-------------------------------
-5-5-5-5-5----------|3-3-3-3------------------|-2-2-2-2-----------------------
-5-5-5-5-5----------|3-3-3-3------------------|-2-2-2-2-----------------------
-5-5-5-5-5----------|3-3-3-3------------------|-2-2-2-2-----------------------  

"common and kick me" "I got my ass wipe" "You got yo big cheese"
-9-9-9-9--7-7-7-7--5-5-5-5--3-3-3-3-------------------------------------------
------------------------------------7-7-7-7---5-5-5-5---3-3-3-3---1-1-1-1-----
------------------------------------------------------------------------------
------------------------------------------------------------------------------
------------------------------------------------------------------------------
------------------------------------------------------------------------------  

solo..........
--------------------------------------|---------------------------------------
--------------------------------------|---------------------------------------
-6-6-6-6---4-4-4-4---2-2-2-2---0-0-0-0|---------------------------------------
--------------------------------------|---------------------------------------
--------------------------------------|---------------------------------------
--------------------------------------|---------------------------------------
-0-0--2-3----0-0--2-3---------------------------------------------------------
------------------------------------------------------------------------------
------------------------------------------------------------------------------
------------------------------------------------------------------------------
------------------------------------------------------------------------------
------------------------------------------------------------------------------  

i think this is played at the end, im not sure.


B5/F# C5/G D5/A E5/B F5/C
variations - click chord images
Transpose chords:
Tuning:
Cool service:
View: Size:
A  A  A
Rating:
Layout:
  • Currently 1/5 Stars.
  • 1
  • 2
  • 3
  • 4
  • 5
 
Accuracy:
  • Currently 1/5 Stars.
  • 1
  • 2
  • 3
  • 4
  • 5
 
click stars to rate
Chordie recommends:
Get acoustic guitar lessons and electric guitar lessons at JamPlay.com
Songbook:
Login to add this song to your songbook
Support the artist
Preview/buy this song
MSN Music
Why this non-profit ad?

 
login to add comments/video/corrections