Chordie logo

Sunshine   Wheatus



song : sunshine
band : wheatus
album: Wheatus
Tabbed by : Karl McCann (karl@kmccann.fsnet.co.uk)

im not sure if this is it but it sounds abit like it!!!!!!

iNtro

-----------------------------------------------------------------------
-----------------------------------------------------------------------
--------2--2-----------------------2--2--------------------------------
--------2--2-----------------------2--2--------------------------------
--------0--0-----------------------0--0--------------------------------
-----------------------------------------------------------------------

verse/chorus

------------0--0--------------0--0-------------0--0--------------0--0--
------------0--0--------------0--0-------------0--0--------------0--0--
------2---------------------------------4------------------------------
------2---------------2-----------------4----------------2-------------
------0---------------2-----------------2----------------2-------------
----------------------0----------------------------------0-------------

i dont know if this will work!!!!!! but its a try!!!!!!!!

i dont know the funky chinese tune in it tho!!!!!!!

can any1 help me think of a band name for my band coz theres this band in
school called "LikelyHood" and i know my band is better than theres but i have to
prove it!!!! they always P me off coz they always say there better then me
but there not!!!! so far ive came up with "SkoolBoyz" or "Teenage Rock"!!
i know there cheesey but its all i can think of!!!! thanx for listening!!

E-mail me at : Karl@kmccann.fsnet.co.uk



Important: The song above is NOT stored on the Chordie server. The original song is hosted at www.xguitar.com. Chordie works as a search engine and provides on-the-fly formatting. Chordie does not index songs against artists/composers will. To remove this song please click here.

This song is displayed as text-only. Transposing and tuning is only available for chordpro-songs.

Login - add to songbook

Rating click stars to rate

Layout
Accuracy

SHARE PAGE  

You need to log in to post comments