"yes"; ?> A Boy's Best Friend by White Stripes - guitar chords, guitar tabs and lyrics - chordie

A Boy's Best Friend

White Stripes

 EBEG#BD
INTRO: Played 3x
 DF/GG/A
 D|----0-----0-----0----------------------
 A|---------------------------------------
F#|----------------------3/5--5--5/7--7/--
 D|----------------------3/5--5--5/7--7/--
 A|-------------------0--3/5--5--5/7--7/--
 D|-0-----0-----0-------------------------


Verses:
 DF/GG/AD
 F/GG/AD
 F/GG/AD
 AD

BREAK:
 D|----0----------0-----------------0--------------------------------------------------------------
 A|------------------------------------------------------------------------------------------------
F#|------------------------------------0-5-7--7-7-7--7/0-0--12-12-12-12/0--0-0--12-12-12-12/0--0-0-
 D|------------------------------------0-5-7--7-7-7--7/0-0--12-12-12-12/0--0-0--12-12-12-12/0--0-0-
 A|------------------------------------0-5-7--7-7-7--7/0-0--12-12-12-12/0--0-0--12-12-12-12/0--0-0-
 D|-0-----0--0-0----0-0-0--0--0--0-----------------------------------------------------------------
 D|--------------------------------------------------------------------------12-----------------------------
 A|--------------------------------------------------------------------10/12----12----10/12--10/12-10/12----
F#|-10-10-10-10/0--0-0--10-10-10-10/0--0-0--3-3-3-3-3-3-5-5-5-5-5-5-0--------------12--------------------12-
 D|-10-10-10-10/0--0-0--10-10-10-10/0--0-0--3-3-3-3-3-3-5-5-5-5-5-5-0---------------------------------------
 A|-10-10-10-10/0--0-0--10-10-10-10/0--0-0--3-3-3-3-3-3-5-5-5-5-5-5-0---------------------------------------
 D|---------------------------------------------------------------------------------------------------------
 D|--------------------------------------------------------------------------------------------------------------------
 A|--------------------------------------------------------------------------------------------------------------------
F#|-12/-12-12-12-12/0--0-0--12-12-12-12/0--0-0-10-10-10-10/0--0-0--10-10-10-10/0--0-0--3-3-3-3-3-3-5-5-5-5-5-5--5-5-7--
 D|-12/-12-12-12-12/0--0-0--12-12-12-12/0--0-0-10-10-10-10/0--0-0--10-10-10-10/0--0-0--3-3-3-3-3-3-5-5-5-5-5-5--5-5-7--
 A|-12/-12-12-12-12/0--0-0--12-12-12-12/0--0-0-10-10-10-10/0--0-0--10-10-10-10/0--0-0--3-3-3-3-3-3-5-5-5-5-5-5--5-5-7--
 D|--------------------------------------------------------------------------------------------------------------------


D (Played 2x)

 F/GG/AD
























A B D E F/G G#
variations - click chord images
Transpose chords:
Tuning:
Cool service:
View: Size:
A  A  A
Rating:
Layout:
  • Currently 2.4/5 Stars.
  • 1
  • 2
  • 3
  • 4
  • 5
 
Accuracy:
  • Currently 2.2/5 Stars.
  • 1
  • 2
  • 3
  • 4
  • 5
 
click stars to rate
Chordie recommends:
Get acoustic guitar lessons and electric guitar lessons at JamPlay.com
Songbook:
Login to add this song to your songbook
Support the artist
Preview/buy this song
MSN Music
Why this non-profit ad?

 
login to add comments/video/corrections