Guitar Tabs, Chords and Lyrics


Death Letter    White Stripes



Title: Death Letter
 Artist: the White Stripes
 Album: De Stijl
 Notes: OK, first off, what you see on this page is not 100% accurate, it is
 simply the basics for this song. The actual thing is full of more notes,
 slides, etc, and you should take what is written here and change and edit
 it as you see fit. The modifications are the different riffs that appear in
 the song. Work out the order yourself, it's not hard. Oh crap, nearly forgot,
 play some of this with a slide, i.e. the barred parts, and the song is tuned
 to open D, that is DADGBD. And lastly, importantly,improvise. It's better to
 improvise on some parts because a)the song sounds more you b)it helps you
 develop artistically and c)it saves me having to tab the whole *** thing out.

  Main riff
 |----------------------------------------------------|
 |----------------------------------------------------|
 |----------3--0--3-3-3-3-3----------3--0--3b3-3-3-3--|
 |----------0-(0)-0------------------0--0--0----------|
 |----------------------------------------------------|
 |-5--3--5------------------5--3--5-------------------|
 |
 |Modification 1
 |----------------5------------------------5----------|
 |----------------5--5-5-5-5-5-------------5--5-5-5-5-|
 |----------3b-0-----0---0-----------3b-0-----0-------|
 |----------------------------------------------------|
 |----------------------------------------------------|
 |-5--3--5---------------------3--5-------------------|
 |
 |Modification 2
 |----------------------------------------------------|
 |----------------------------------------------------|
 |----------3--0--3-3-3-3-3----------3--0--3-3-3-3-3--|
 |----------0--0--0------------------0-(0)-0----------|
 |--------------------------5--3--0-------------------|
 |-5--3--0------------------5--3--0-------------------|

  Other riff
 |------------------7----/7--7-----7--------------------5--5---5----------------5----------
 |-7-----7-------7--7----/7--7--7--7--7-----------------5--5-5-5-5--------------5--5-5-5-5-
 |-7--7--7--7----7--7--7-/7--7--7--7--7--7--------3b-0--------------------3b-0-------5-----
 |-7--7--7--7----7--7--7-/7--7--7--7--7--7-------------------------------------------------
 |-7--7--7--7----7--7--7-/7-----7--7--7--7-------------------------------------------------
 |-7-----7--7----------7-/7--------7--7--7--3--0--------------------3--0-------------------

  --------------------------------------------------------------------------------7--7----|
  -/7--7--7r-7----7-----7-/5--5--5r-5----5------------------------------------/7--7--7--7-|
  -/7--7--7r-7----7--7--7-/5--5--5r-5----5--5--5------------------------------/7--7--7--7-|
  -/7--7--7r-7----7--7--7-/5--5--5r-5----5--5--5-----5-5----3-3----2-2---1-1--/7--7--7--7-|
  -/7--7--7r-7----7--7--7-/5--5--5r-5----5--5--5------------------------------/7--7-----7-|


Important: The song above is NOT stored on the Chordie server. The original song is hosted at www.xguitar.com. Chordie works as a search engine and provides on-the-fly formatting. Chordie does not index songs against artists'/composers' will. To remove this song please click here.

This song is displayed as text-only. Transposing and tuning is only available for chordpro-songs.

Login - add to songbook

Rating click stars to rate

Layout
Accuracy

SHARE PAGE  




You need to log in to post comments