Guitar Tabs, Chords and Lyrics


I'm Bound to Pack It Up    White Stripes










Author/Artist: White Stripes
Title: I'm bound to pack it up
Album: De Stijl
Transcribed by: Helle Joy
Email: unintentionally@antisocial.com

Use a capo on the 3rd fret, this is
pretty much the whole song, get the lyrics
to figure out where everything goes, it isn't hard.

-|----------------------------------------------------------------------------
-|-5-5-5-6-5-6-5-5/8-8-8-8-9-8-9-8-8/10-10-11-10-11-10-5-5--------------------
-|-5-5-5-5-5-5-5-5/8-8-8-8-8-8-8-8-8/10-10-10-10-10-10-5-5--------------------
-|-5-5-5-5-5-5-5-5/8-8-8-8-8-8-8-8-8/10-10-10-10-10-10-5-5--------------------
-|-0-0-0-0-0-0-0-0-0-0-0-0-0-0-0-0-0--0--0--0--0--0--0-0-0-6p-----------------
-|-----------------------------------------------------------6----------------
   Main riff-I've thought about it for awhile->

-|----------------------------------------------------------------------------
-|----------------------------------------------------------------------------
-|----------------------------------------------------------------------------
-|8-8-8-10-10-8-8-8-10-10-----------------------------------------------------
-|8-8-8-10-10-8-8-8-10-10-----------------------------------------------------
-|6-6-6--8--8-6-6-6--8--8-----------------------------------------------------
 (chorus)I'm gonna pick it up->back to main riff before "i'm bound to pack

--|---------------------------------------------------------------------------
--|---------------------------------------------------------------------------
--|---------------------------------------------------------------------------
--|-4-4-4-4-4-4-4-4-4-4-4-4-4-6-6---------------------------------------------
--|-4-4-4-4-4-4-4-4-4-4-4-4-4-6-6---------------------------------------------
--|-6-6-6-6-6-6-6-6-6-6-6-6-6-8-8---------------------------------------------


Important: The song above is NOT stored on the Chordie server. The original song is hosted at www.xguitar.com. Chordie works as a search engine and provides on-the-fly formatting. Chordie does not index songs against artists'/composers' will. To remove this song please click here.

This song is displayed as text-only. Transposing and tuning is only available for chordpro-songs.

Login - add to songbook

Rating click stars to rate

Layout
Accuracy

SHARE PAGE  




You need to log in to post comments