Guitar Tabs, Chords and Lyrics


Jumble, Jumble    White Stripes



Tabbed by danthaman

Jumble, Jumble by the White Stripes

|----------------------|
|----------------------|
|----------------------|
|---4-4--2-2--4-4--2---|   X 1
|---4-4--2-2--4-4--2---|
|---2-2--0-0--2-2--0---|




|----------------------14-12--|
|-----------------------------|
|-----------------------------|
|---4-4--2-2--4-4--2----------|   X 2
|---4-4--2-2--4-4--2----------|
|---2-2--0-0--2-2--0----------|



|----------------------|
|----------------------|
|----------------------|
|---4-4--2-2--4-4--2---|   X 3
|---4-4--2-2--4-4--2---|
|---2-2--0-0--2-2--0---|



|----------------------|
|----------------------|
|----------------------|
|---9-9--7-7--9-9--7---|   X 1
|---9-9--7-7--9-9--7---|
|---7-7--5-5--7-7--5---|



|----------------------|
|----------------------|
|----------------------|
|---4-4--2-2--4-4--2---|   X 1
|---4-4--2-2--4-4--2---|
|---2-2--0-0--2-2--0---|



|-------------------|
|-------------------|
|-------------------|
|---11---------9----|   X 1
|---11---------9----|
|----9---------7----|



|----------------------|
|----------------------|
|----------------------|
|---4-4--2-2--4-4--2â€"--|   X 1
|---4-4--2-2--4-4--2---|
|---2-2--0-0--2-2--0---|



|----------14-12-14-12-14-12-14-12-14-12-14-12---|
|------------------------------------------------|
|------------------------------------------------|
|---4--------------------------------------------|   X 4
|---4--------------------------------------------|
|---2--------------------------------------------|



|----------------------14-12--|
|-----------------------------|
|-----------------------------|
|---4-4--2-2--4-4--2----------|   X 1
|---4-4--2-2--4-4--2----------|
|---2-2--0-0--2-2--0----------|



|----------------------|
|----------------------|
|----------------------|
|---4-4--2-2--4-4--2â€"--|   X 5
|---4-4--2-2--4-4--2---|
|---2-2--0-0--2-2--0---|



|----------------------|
|----------------------|
|----------------------|
|---9-9--7-7--9-9--7---|   X 1
|---9-9--7-7--9-9--7---|
|---7-7--5-5--7-7--5---|



|----------------------|
|----------------------|
|----------------------|
|---4-4--2-2--4-4--2â€"--|   X 1
|---4-4--2-2--4-4--2---|
|---2-2--0-0--2-2--0---|



|-------------------|
|-------------------|
|-------------------|
|---11---------9----|   X 1
|---11---------9----|
|----9---------7----|



|----------------------|
|----------------------|
|----------------------|
|---4-4--2-2--4-4--2â€"--|   X 1
|---4-4--2-2--4-4--2---|
|---2-2--0-0--2-2--0---|




|----------14-12-14-12-14-12-14-12-14-12-14-12---|
|------------------------------------------------|
|------------------------------------------------|
|---4--------------------------------------------|   X 3
|---4--------------------------------------------|
|---2--------------------------------------------|



| ----14-12-14-12-14-12-----17-19-17-19-14---- |
| -------------------------13----------------- |
| -------------------------------------------- |
| --4----------------------------------------- |   X1
| --4----------------------------------------- |
| --2----------------------------------------- |



|----------------------17-19-|
|----------------------------|
|----------------------------|
|---4-4--2-2--4-4--2â€"--------|   X 1
|---4-4--2-2--4-4--2---------|
|---2-2--0-0--2-2--0---------|



|----------------------|
|----------------------|
|----------------------|
|---4-4--2-2--4-4--2â€"--|   X 3
|---4-4--2-2--4-4--2---|
|---2-2--0-0--2-2--0---|



|----------------------|
|----------------------|
|----------------------|
|---9-9--7-7--9-9--7---|   X 1
|---9-9--7-7--9-9--7---|
|---7-7--5-5--7-7--5---|



|----------------------|
|----------------------|
|----------------------|
|---4-4--2-2--4-4--2â€"--|   X 1
|---4-4--2-2--4-4--2---|
|---2-2--0-0--2-2--0---|



|--------------------|
|--------------------|
|--------------------|
|---11---------9----4|   X 1
|---11---------9----4|


Important: The song above is NOT stored on the Chordie server. The original song is hosted at www.xguitar.com. Chordie works as a search engine and provides on-the-fly formatting. Chordie does not index songs against artists'/composers' will. To remove this song please click here.

This song is displayed as text-only. Transposing and tuning is only available for chordpro-songs.

Login - add to songbook

Rating click stars to rate

Layout
Accuracy

SHARE PAGE  




You need to log in to post comments