Guitar Tabs, Chords and Lyrics


You're Pretty Good Looking (For a Girl)    White Stripes



MaRTO
WHITE STRIPES- You're Pretty Good Looking (for a girl)
mar90

 not a hard song though heh=)
I leave you with the general riffs but you'll have to figure out
the rhythm yourself.

INTRO:
too lazy to write out the mutes..
i think it's also slightly palm muted in some parts.
e----------------------------------------------
B----------------------------------------------
G--4-4-4-4-4-4-4-4-4-4-4-2h4-4-4-4-4-4-------4-
D--4-4-4-4-4-4-4-4-4-4-4-4---4-4-4-4-4-4-4-4-4-
A--2-2-2-2-2-2-2-0-2-2-2-2---2-0-2-2-2-4-4-4-2-
E--------------------------------------2-2-2---


VERSE:                     |--only done the first time--|
e-------------------------------------------------------
B-------------------------------------------------------
G-4-4-4-4-4-4---1-1-1-------4-4-4-4-4-4-4-4-4-4-4-4-4-4-  x 2
D-4-4-4-4-4-4---2-2-2-4-4-4-4-4-4-4-4-4-4-4-4-4-4-4-4-4-
A-2-2-2-2-2-2---2-2-2-4-4-4-2-2-2-2-2-2-0-2-2-2-2-2-2-0-
E-------------0-0-0-0-2-2-2-----------------------------


e---------------
B---------------
G-4-4-4-1-1-1---
D-4-4-4-2-2-2-4-
A-2-2-2-2-2-2-4-
E-------0-0-0-2-


BRIDGE:
e---------------------------------------------------------------------
B---------------------------------------------------------------------
G-4-4-4-------4-3-4-5-6-7-8-8-8-8-8-8-8-8---------------6-6-6-6-6-6-6-
D-4-4-4-4-4-4-4-3-4-5-6-7-8-8-8-8-8-8-8-8-6-6-6-6-6-6-6-6-6-6-6-6-6-6-
A-2-2-2-4-4-4-2-1-2-3-4-5-6-6-6-6-6-6-6-6-6-6-6-6-6-6-6-4-4-4-4-4-4-4-
E-------2-2-2-----------------------------4-4-4-4-4-4-4---------------

e-----------
B-----------
G-1-1-1-1---
D-2-2-2-2-4-
A-2-2-2-2-4-
E-0-0-0-0-2-

OUTRO:
e--------------------------
B--------------------------
G-4-4-4-4---------4--4-4-4-
D-4-4-4-4-4-4-4-4-4--4-4-4-
A-2-2-2-2-4-4-4-4-2--2-2-2-
E---------2-2-2-2----------

LYRICS
Oh yeah you're pretty good looking for a girl
but your back is so broken
and this feeling's still gonna linger on
until the year 2525 now

yeah you're pretty good looking for a girl
your eyes are wide open
and your thoughts have been stolen by the boys
who took you out and bought you everything you
want now

yeah you're pretty good looking
oh yeah
you're pretty good looking
yes you're pretty good looking
oh yeah
for a girl

(bridge)
lots of people in this world
but I want to be your boy
to me that thought is sounding so absurd
and I don't wanna be your toy
(verse)
cause you're pretty good looking for a girl
my future's wide open
but this feeling's still gonna linger on
until I know everything I need to know now

yeah you're pretty good looking
oh yeah
you're pretty good looking
yes you're pretty good looking
oh yeah


Important: The song above is NOT stored on the Chordie server. The original song is hosted at www.xguitar.com. Chordie works as a search engine and provides on-the-fly formatting. Chordie does not index songs against artists'/composers' will. To remove this song please click here.

This song is displayed as text-only. Transposing and tuning is only available for chordpro-songs.

Login - add to songbook

Rating click stars to rate

Layout
Accuracy

SHARE PAGE  




You need to log in to post comments