Guitar Tabs, Chords and Lyrics


Girl, You Have No Faith in Medicine    White Stripes



Girl, You Have No Faith In Medicine
The White Stripes
Standard Tuning
I tried to get a tab for this, but i couldn't seem to get it, so i decided to do it myself. i hope you like it! please rate

Intro
|------( x4 )------|-------------------------------------
|------------------|-------------------------------------
|---444----4-444---|-6-666----6-666-------444----4-444---
|---555----5-555---|-7-777----7-777-------555----5-555---
|---555----5-555---|-7-777----7-777-------555----5-555---
|-0-333-0--3-333-0-|-5-555-0--5-555-0---0-333-0--3-333-0-

|---------------------------888888888--------------------|
|---------------------------888888888--------------------|
|-8-8-8-111111111111--6---6-777777777-----444----4-444---|
|-9-9-9-121212121212--7---7-555555555-----555----5-555---|
|-9-9-9-121212121212--7---7---------------555----5-555---|
|-7-7-7-101010101010--5---5-------------0-333-0--3-333-0-|

Chorus
|------( x2 )------|-------------------------------------
|------------------|-------------------------------------
|---444----4-444---|-6-666----6-666-------444----4-444---
|---555----5-555---|-7-777----7-777-------555----5-555---
|---555----5-555---|-7-777----7-777-------555----5-555---
|-0-333-0--3-333-0-|-5-555-0--5-555-0---0-333-0--3-333-0-

|------------------------------------|
|------------------------------------|
|-8-8-8-8-8-8-8-11-11-11-11-11-11-11-|
|-9-9-9-9-9-9-9-12-12-12-12-12-12-12-|
|-9-9-9-9-9-9-9-12-12-12-12-12-12-12-|
|-7-7-7-7-7-7-7-10-10-10-10-10-10-10-|

Verse
|------------------------------------------------------------------------------
|------------------------------------------------------------------------------
|---444---4-444---4-----------444---4-444---4------------444---4-444---6-------
|---555---5-555---5-----------555---5-555---5------------555---5-555---7-------
|---555---5-555---5-----------555---5-555---5------------555---5-555---7-------
|-0-333-0-3-333-0-3---------0-333-0-3-333-0-3----------0-333-0-3-333-0-5-------
                   Is there.                 It’s just.                 Is the.

|-------------------------------------------------(same timing as ------|
|-------------------------------------------------- end of chorus)------|
|-6-666---6-666---4--------------444---4-444-----8888888-11111111111111-|
|-7-777---7-777---5--------------555---5-555-----9999999-12121212121212-|
|-7-777---7-777---5--------------555---5-555-----9999999-12121212121212-|
|-5-555-0-5-555-0-3------------0-333-0-3-333-0---7777777-10101010101010-|
                   Do you have.

Then Play the Chorus

The Solos (these aren’t very exact because I basically made them up and they sounded good!) play the verse, but instead of there being lyrics, there are guitar solos.

Solo 1
|-7b8~~~~-7p5------------------------|
|-------------7p5--------------------|
|-----------------7--7p5-------------|
|------------------------7p5---------|
|----------------------------7p5-----|
|--------------------------------7p5-|

Solo 2
|7b8~~~~-7p5-----------------|
|------------7p5-------------|
|----------------7-7p5-------|
|----------------------9p7-5-|
|----------------------------|
|----------------------------|

Solo 3
|-9b11(11)~~~~-h9p7h9p7h9p7h9p7h9p7--7b-|
|-------------(toggle pickup selector---|
|--------------if you don’t have one ---|
|-----------------don’t worry)----------|
|---------------------------------------|
|---------------------------------------|

Solo 4
|----9-7---------------|
|-7b-----7-5-----------|
|-7b---------9-7-------|
|----------------7p5---|
|--------------------7-|
|----------------------|

*instead of ending the (solo) verse normally end like this
|-------------------------5-5-5-5-|
|-------------------------5-5-5-5-|
|-8-8-8-8-8-8-8-8-6-6-6-6-6-6-6-6-|
|-9-9-9-9-9-9-9-9-7-7-7-7-7-7-7-7-|
|-9-9-9-9-9-9-9-9-7-7-7-7-7-7-7-7-|
|-7-7-7-7-7-7-7-7-5-5-5-5-5-5-5-5-|

Then Play
Chorus
Verse
*instead of ending the verse normally end like this
|---------------------------888888888--|
|---------------------------888888888--|
|-8-8-8-111111111111--6---6-777777777--|
|-9-9-9-121212121212--7---7-555555555--|
|-9-9-9-121212121212--7---7------------|
|-7-7-7-101010101010--5---5------------|

End with
|------( x8 )------|-------|
|------------------|-------|
|---444----4-444---|---4---|
|---555----5-555---|---5---|
|---555----5-555---|---5---|
|-0-333-0--3-333-0-|---3---|



Important: The song above is NOT stored on the Chordie server. The original song is hosted at www.xguitar.com. Chordie works as a search engine and provides on-the-fly formatting. Chordie does not index songs against artists'/composers' will. To remove this song please click here.

This song is displayed as text-only. Transposing and tuning is only available for chordpro-songs.

Login - add to songbook

Rating click stars to rate

Layout
Accuracy

SHARE PAGE  




You need to log in to post comments