Guitar Tabs, Chords and Lyrics


Hypnotize    White Stripes



white stripes
                                       hypnotize
                                   tabbed by kingsam

the other ways i guess were right but my way is right to and alot easier to play.
PLEASE RATE OR COMMENT!

Intro/verse listen to song to get right rhythm!
E-----------------------------------
B-2-2-x-----------------------------
G-2-2-x-5-5-x-4-4-5-5-5-------------
D-2-2-x-5-5-x-2-2-5-5-5-------------
A-0-0-x-3-3-x-----3-3-3-------------
E-----------------------------------

The other variations in the verse are:
                      Variation 1:
E--------------------------------------
B-2-2-2-2-2-2-----2--------------------
G-2-2-2-2-2-2-----2--------------------
D-2-2-2-2-2-2-3-5-2--------------------
A-0-0-0-0-0-0-3-5-0--------------------
E-------------1-3----------------------
"i wanna hypnotize you baby on the telephone"

                       Variation 2:
E---------------------------------------
B---------------------------------------
G-4-4-4-4-5-4-4-4-4---------------------
D-2-2-2-2-3-2-2-2-2---------------------
A---------------------------------------
E---------------------------------------
"so many times i called your house just to hear the tone"

                       Variation 3:
E-----------------------------------
B-----------------------------------
G-5-5-2-2-4-4-5---------------------
D-3-3-0-0-2-2-5---------------------
A-------------3---------------------
E-----------------------------------
"And though i knew you were not home, i didnt mind much cuz im so alone"

                                 Bridge:
E-----------------------------------------------
B-----------------------------------------------
G-----------------------------------------------
D--------------------------------------2-2--------
A--------------------------------------2-2------
E-55555--1111-333--555555-111111-33333-0-0------
Thats not the exact amount of times you hit
each note but you can figure it out. the 0/2 is played last tho.

                       Variation 4: this is played at very end of song:
E---------------------------
B---------------------------
G--5-5-2-2------------------
D--3-3-0-0------------------
A---------------------------
E---------------------------
"And then when all feelings gone, decide if you just wanna keep"

                      Variation 5: played right after variation 4:
E---------------------------
B---------------------------
G-4-2-5-2-------------------
D-2-0-5-2-------------------
A-----3-0-------------------
E---------------------------
"Holding on"

And than the song ends with:
E------------------------------------
B-2-2-2-2-2-2-2-2-2------------------
G-2-2-2-2-2-2-2-2-2------------------
D-2-2-2-2-2-2-2-2-2------------------
A-0-0-0-0-0-0-0-0-0------------------
E------------------------------------
"I want to hold your little hand if i can be so bold"
"if i can be so bold"
"if i can be so bold"

THATS IT! thats all the riffs you need ..listen to song to hear when some of


Important: The song above is NOT stored on the Chordie server. The original song is hosted at www.xguitar.com. Chordie works as a search engine and provides on-the-fly formatting. Chordie does not index songs against artists'/composers' will. To remove this song please click here.

This song is displayed as text-only. Transposing and tuning is only available for chordpro-songs.

Login - add to songbook

Rating click stars to rate

Layout
Accuracy

SHARE PAGE  




You need to log in to post comments