Guitar Tabs, Chords and Lyrics


Little Acorns    White Stripes



Band: The White Stripes
Song: Little Acorns
Album: Elephant
Tabbed By: Jack
Screen Name: SleeplessNights

Tuning: Standard

Key: x Mute
     ^ Bend
     * Natural Harmonic
     “ Let Ring


This is my first TAB. If you have got any corrections post them.
Please rate this.
This sounds spot on 100% to me. See what you think.

After Spoken Intro

E|---------------------------------------------------------|
B|----x--x--x----------------------------------------------|
G|----x--x--x—--6^-----------------------------------------|	x4
D|----8--6--5----------------------------------------------|
A|----8--6--5----------------------------------------------|
E|----6--4--3----------------------------------------------|

E|---------------------------------------------------------|
B|----x--x--x-------x----x----x----------------------------|
G|----x--x--x—------x----x----x---6^-----------------------|		
D|----8--6--8-------7----6----5----------------------------|
A|----8—-6--8-------7----6----5----------------------------|
E|----6--4—-6-------5----4----3----------------------------|

E|---------------------------------------------------------|
B|----x--x--x----------------------------------------------|
G|----x--x--x—--6^-----------------------------------------|	x3
D|----8--6--5----------------------------------------------|
A|----8--6--5----------------------------------------------|
E|----6--4--3----------------------------------------------|

E|---------------------------------------------------------|
B|----x--x--x-------x----x----x----------------------------|
G|----x--x--x—------x----x----x----------------------------|		
D|----8--6--8-------7----6----5----------------------------|
A|----8—-6--8-------7----6----5----------------------------|
E|----6--4—-6-------5----4----3----3*----------------------|

E|---------------------------------------------------------|
B|----x-------------x--------------------------------------|
G|----x-—-----------x--------------------------------------|	Repeat though verse 1	
D|----5-------------3--------------------------------------|
A|----5-------------3--------------------------------------|
E|----3-------------1--------------------------------------|
  Palm mute  . . . . . . . . . . . . . . . . . . . . . . . .

E|---------------------------------------------------------|
B|-----x--x--x--x----x--x--x-----x--x--x-------------------|
G|-----x--x-—x--x----x--x--x-----x--x--x-------------------|		
D|-----5--8--6--5----8--6--3-----8--6--3-------------------|
A|----—5--8--6--5----8--6--3-----8--6--3-------------------|
E|-----3-—6--4--3----6--4--1-----6--4--1-------------------|

E|---------------------------------------------------------|
B|-----x--x--x----x--x--x----x--x--x----x--x--x----x--x--x-|
G|-----x--x--x----x--x--x----x--x--x----x--x--x----x--x--x-|
D|-----8--6--5----8--6--5----8--6--3----8--6--3----8--6--5-|
A|-----8--6--5----8--6--5----8--6--3----8--6--3----8--6--5-|
E|-----6--4--3----6--4--3----6--4--1----6--4--1----6--4—-3-|

E|---------------------------------------------------------|
B|----x--x--x----------------------------------------------|
G|----x--x--x—--6^-----------------------------------------|	x4
D|----8--6--5----------------------------------------------|
A|----8--6--5----------------------------------------------|
E|----6--4--3----------------------------------------------|

E|---------------------------------------------------------|
B|----x--x--x-------x----x----x----------------------------|
G|----x--x--x—------x----x----x---6^-----------------------|		
D|----8--6--8-------7----6----5----------------------------|
A|----8—-6--8-------7----6----5----------------------------|
E|----6--4—-6-------5----4----3----------------------------|

E|---------------------------------------------------------|
B|----x--x--x----------------------------------------------|
G|----x--x--x—--6^-----------------------------------------|	x3
D|----8--6--5----------------------------------------------|
A|----8--6--5----------------------------------------------|
E|----6--4--3----------------------------------------------|

E|---------------------------------------------------------|
B|----x--x--x-------x----x----x----------------------------|
G|----x--x--x—------x----x----x----------------------------|		
D|----8--6--8-------7----6----5----------------------------|
A|----8—-6--8-------7----6----5----------------------------|
E|----6--4—-6-------5----4----3----3*----------------------|

E|---------------------------------------------------------|
B|----x-------------x--------------------------------------|
G|----x----—--------x--------------------------------------|	Repeat though verse 2	
D|----5-------------3--------------------------------------|
A|----5—------------3--------------------------------------|
E|----3--—----------1--------------------------------------|
  Palm mute  . . . . . . . . . . . . . . . . . . . . . . . .

E|---------------------------------------------------------|
B|-----x--x--x--x----x--x--x-----x--x--x-------------------|
G|-----x--x-—x--x----x--x--x-----x--x--x-------------------|		
D|-----5--8--6--5----8--6--3-----8--6--3-------------------|
A|----—5--8--6--5----8--6--3-----8--6--3-------------------|
E|-----3-—6--4--3----6--4--1-----6--4--1-------------------|

E|---------------------------------------------------------|
B|-----x--x--x----x--x--x----x--x--x----x--x--x------------|
G|-----x--x--x----x--x--x----x--x--x----x--x--x------------|
D|-----8--6--5----8--6--5----8--6--3----8--6--3------------| x2
A|-----8--6--5----8--6--5----8--6--3----8--6--3------------|
E|-----6--4--3----6--4--3----6--4--1----6--4--1------------|





E|---------------------------------------------------------|
B|----x--x—-----x”-----------------------------------------|
G|----x--x—-----x”-----------------------------------------|
D|----8--6—-----5”-----------------------------------------|
A|----8--6—-----5”-----------------------------------------|
E|----6--4—-----3”-----------------------------------------|



E|---------------------------------------------------------|
B|----x--x--x----------------------------------------------|
G|----x--x--x—--6^-----------------------------------------|	x4
D|----8--6--5----------------------------------------------|
A|----8--6--5----------------------------------------------|
E|----6--4--3----------------------------------------------|

E|---------------------------------------------------------|
B|----x--x--x-------x----x----x----------------------------|
G|----x--x--x—------x----x----x----------------------------|		
D|----8--6--8-------7----6----5----------------------------|
A|----8—-6--8-------7----6----5----------------------------|


Important: The song above is NOT stored on the Chordie server. The original song is hosted at www.xguitar.com. Chordie works as a search engine and provides on-the-fly formatting. Chordie does not index songs against artists'/composers' will. To remove this song please click here.

This song is displayed as text-only. Transposing and tuning is only available for chordpro-songs.

Login - add to songbook

Rating click stars to rate

Layout
Accuracy

SHARE PAGE  




You need to log in to post comments