Guitar Tabs, Chords and Lyrics


The Hardest Button to Button    White Stripes



Song: The Hardest Button to Button
Artist: White Stripes
Album: Elephant
Tabbed by: johnny hernandez (whatever7217@aol.com)


INTRO 1

-----------------------------------------------------------------------------------------------
-----------------------------------------------------------------------------------------------
-----------2------------------5------------------------2-----------------5--------------------
---------------2------------------5-----------------------2-----------------5--------
------0-----------0-------3----------5----------0-----------0-------3--------3------------------
-----------------------------------------------------------------------------------------------

----------------------------------------------------------------------------------------------
----------------------------------------------------------------------------------------------
-------2-------------------5-----------------------4--------------------7-------------------
------------2-------------------5-----------------------4---------------------7-----------
--0-------------2----3-------------5----------2------------4------5---------------------------
----------------------------------------------------------------------------------------------

INTRO 2- now were a family...(using upstrokes then downstrokes)

------------------------------------------------------------------
-------------------------------------------------------------------
-------------------------------------------------------------------
----7-7-7-7-/-10-10-10-10------------------------------------		Play
----7-7-7-7-/-10-10-10-10------------------------------------		this 3
----5-5-5-5-/-8---8---8--8------------------------------------		times

and then
-----------------------------------------------------------------------------------------
-----------------------------------------------------------------------------------------
-----------------------------------------------------------------------------------------
------9-9-9-9/-12-12-12-12------------------------------------
------9-9-9-9/-12-12-12-12------------------------------------
------7-7-7-9/-10-10-10-10------------------------------------

CHORUS

-------------------------------------------------------------------------------------
-------------------------------------------------------------------------------------		play this	
-------------------------------------------------------------------------------------		3 times
---7-----7-----7----7-------10-----10----10----10------------------------------------
---7-----7-----7----7-------10-----10----10----10------------------------------------
---5-----5-----5----5--------8------8-----8-----8------------------------------------

and then
---------------------------------------------------------------------------------------
---------------------------------------------------------------------------------------
---------------------------------------------------------------------------------------
-----9-----9----9----9------12-----12-----12------12-----------------------------------
-----9-----9----9----9------12-----12-----12------12-----------------------------------
-----7-----7----7----7------10-----10-----10------10-----------------------------------



Important: The song above is NOT stored on the Chordie server. The original song is hosted at www.xguitar.com. Chordie works as a search engine and provides on-the-fly formatting. Chordie does not index songs against artists'/composers' will. To remove this song please click here.

This song is displayed as text-only. Transposing and tuning is only available for chordpro-songs.

Login - add to songbook

Rating click stars to rate

Layout
Accuracy

SHARE PAGE  




You need to log in to post comments