Guitar Tabs, Chords and Lyrics


Expecting    White Stripes



-----------------------------------------------------------------
The White Stripes - Expecting
from their album White Blood Cells
-----------------------------------------------------------------
Tabbed by: Shortys99887	
Email: shortys99887@hotmail.com

Tuning: Standard [EADGBe]

e|---------------------------------------------------------------|
B|---------------------------------------------------------------|
G|--5-777-10-----------------------------------------------------|
D|--5-777-10-10--------------------------------------------------| x8
A|--3-555-8--10--------------------------------------------------|
E|-----------8---------------------------------------------------|

e|---------------------------------------------------------------|
B|---------------------------------------------------------------|
G|--------5------------------------------------------------------|
D|--5-777-5-5----------------------------------------------------| x3  then..
A|--5-777-3-5----------------------------------------------------|
E|--3-555---3----------------------------------------------------|

e|---------------------------------------------------------------|
B|---------------------------------------------------------------|
G|--------5----5--5----------------------------------------------|
D|--5-777-5-5--5--5----------------------------------------------| Then repeat
A|--5-777-3-5--3--5----------------------------------------------| everything
E|--3-555---3----------------------------------------------------|

Listen to the song to get the correct timing and such...

Questions? Comments? Corrections?


Important: The song above is NOT stored on the Chordie server. The original song is hosted at www.xguitar.com. Chordie works as a search engine and provides on-the-fly formatting. Chordie does not index songs against artists'/composers' will. To remove this song please click here.

This song is displayed as text-only. Transposing and tuning is only available for chordpro-songs.

Login - add to songbook

Rating click stars to rate

Layout
Accuracy

SHARE PAGE  




You need to log in to post comments