Guitar Tabs, Chords and Lyrics


Fell in Love With a Girl    White Stripes



Very simple song, probably means I've got it wrong, but it sounds right to me
Standard tuning

------------------------------------------------------------------------------
------------------------------------------------------------------------------
-8--8-8-8-8-8-6--6-6-6-6-6-11--11-11-11-11-11-4--4-4-4-4-4--------------------
-9--9-9-9-9-9-7--7-7-7-7-7-12--12-12-12-12-12-5--5-5-5-5-5--------------------
-9--9-9-9-9-9-7--7-7-7-7-7-12--12-12-12-12-12-5--5-5-5-5-5--------------------
-7--7-7-7-7-7-5--5-5-5-5-5-10--10-10-10-10-10-3--3-3-3-3-3--------------------
 riff 1 (x3)

------------------------------------------------------------------------------
------------------------------------------------------------------------------
-1--1-1-1-1-1-6--6-6-6-6-6-11--11-11-11-11-11-4--4-4-4-4-4--------------------
-2--2-2-2-2-2-7--7-7-7-7-7-12--12-12-12-12-12-5--5-5-5-5-5--------------------
-2--2-2-2-2-2-7--7-7-7-7-7-12--12-12-12-12-12-5--5-5-5-5-5--------------------
-0--0-0-0-0-0-5--5-5-5-5-5-10--10-10-10-10-10-3--3-3-3-3-3--------------------
 riff 2 (x1)

------------------------------------------------------------------------------
------------------------------------------------------------------------------
-1--1-1-1-1-1-6--6-6-6-6-6--1-------------------------------------------------
-2--2-2-2-2-2-7--7-7-7-7-7--2-------------------------------------------------
-2--2-2-2-2-2-7--7-7-7-7-7--2-------------------------------------------------
-0--0-0-0-0-0-5--5-5-5-5-5--0-------------------------------------------------
 riff 3 (x1)

------------------------------------------------------------------------------
------------------------------------------------------------------------------
-8--8-8-8-8-8-6--6-6-6-6-6-11--11-11-11-11-11-4--4-4-4-4-4--------------------
-9--9-9-9-9-9-7--7-7-7-7-7-12--12-12-12-12-12-5--5-5-5-5-5--------------------
-9--9-9-9-9-9-7--7-7-7-7-7-12--12-12-12-12-12-5--5-5-5-5-5--------------------
-7--7-7-7-7-7-5--5-5-5-5-5-10--10-10-10-10-10-3--3-3-3-3-3--------------------
 riff 1 (x2)

------------------------------------------------------------------------------
------------------------------------------------------------------------------
-1--1-1-1-1-1-6--6-6-6-6-6-11--11-11-11-11-11-4--4-4-4-4-4--------------------
-2--2-2-2-2-2-7--7-7-7-7-7-12--12-12-12-12-12-5--5-5-5-5-5--------------------
-2--2-2-2-2-2-7--7-7-7-7-7-12--12-12-12-12-12-5--5-5-5-5-5--------------------
-0--0-0-0-0-0-5--5-5-5-5-5-10--10-10-10-10-10-3--3-3-3-3-3--------------------
 riff 2 (x1)

------------------------------------------------------------------------------
------------------------------------------------------------------------------
-1--1-1-1-1-1-6--6-6-6-6-6--1-------------------------------------------------
-2--2-2-2-2-2-7--7-7-7-7-7--2-------------------------------------------------
-2--2-2-2-2-2-7--7-7-7-7-7--2-------------------------------------------------
-0--0-0-0-0-0-5--5-5-5-5-5--0-------------------------------------------------
 riff 3 (x1)

------------------------------------------------------------------------------
------------------------------------------------------------------------------
-8--8-8-8-8-8-6--6-6-6-6-6-11--11-11-11-11-11-4--4-4-4-4-4--------------------
-9--9-9-9-9-9-7--7-7-7-7-7-12--12-12-12-12-12-5--5-5-5-5-5--------------------
-9--9-9-9-9-9-7--7-7-7-7-7-12--12-12-12-12-12-5--5-5-5-5-5--------------------
-7--7-7-7-7-7-5--5-5-5-5-5-10--10-10-10-10-10-3--3-3-3-3-3--------------------
 riff 1 (x2)

------------------------------------------------------------------------------
------------------------------------------------------------------------------
-1--1-1-1-1-1-6--6-6-6-6-6-11--11-11-11-11-11-4--4-4-4-4-4--------------------
-2--2-2-2-2-2-7--7-7-7-7-7-12--12-12-12-12-12-5--5-5-5-5-5--------------------
-2--2-2-2-2-2-7--7-7-7-7-7-12--12-12-12-12-12-5--5-5-5-5-5--------------------
-0--0-0-0-0-0-5--5-5-5-5-5-10--10-10-10-10-10-3--3-3-3-3-3--------------------
 riff 2 (x1)

------------------------------------------------------------------------------
------------------------------------------------------------------------------
-1--1-1-1-1-1-6--6-6-6-6-6--1-------------------------------------------------
-2--2-2-2-2-2-7--7-7-7-7-7--2-------------------------------------------------
-2--2-2-2-2-2-7--7-7-7-7-7--2-------------------------------------------------
-0--0-0-0-0-0-5--5-5-5-5-5--0-------------------------------------------------
 riff 3 (x1)

------------------------------------------------------------------------------
------------------------------------------------------------------------------
-8--8-8-8-8-8-6--6-6-6-6-6-11--11-11-11-11-11-4--4-4-4-4-4--------------------
-9--9-9-9-9-9-7--7-7-7-7-7-12--12-12-12-12-12-5--5-5-5-5-5--------------------
-9--9-9-9-9-9-7--7-7-7-7-7-12--12-12-12-12-12-5--5-5-5-5-5--------------------
-7--7-7-7-7-7-5--5-5-5-5-5-10--10-10-10-10-10-3--3-3-3-3-3--------------------
 riff 1 (x2)

------------------------------------------------------------------------------
------------------------------------------------------------------------------
-1--1-1-1-1-1-6--6-6-6-6-6-11--11-11-11-11-11-4--4-4-4-4-4--------------------
-2--2-2-2-2-2-7--7-7-7-7-7-12--12-12-12-12-12-5--5-5-5-5-5--------------------
-2--2-2-2-2-2-7--7-7-7-7-7-12--12-12-12-12-12-5--5-5-5-5-5--------------------
-0--0-0-0-0-0-5--5-5-5-5-5-10--10-10-10-10-10-3--3-3-3-3-3--------------------
 riff 2 (x1)

------------------------------------------------------------------------------
------------------------------------------------------------------------------
-1--1-1-1-1-1-6--6-6-6-6-6--1-------------------------------------------------
-2--2-2-2-2-2-7--7-7-7-7-7--2-------------------------------------------------
-2--2-2-2-2-2-7--7-7-7-7-7--2-------------------------------------------------
-0--0-0-0-0-0-5--5-5-5-5-5--0-------------------------------------------------
 riff 3 (x1)

------------------------------------------------------------------------------
------------------------------------------------------------------------------
-8--8-8-8-8-8-6--6-6-6-6-6-11--11-11-11-11-11-4--4-4-4-4-4--------------------
-9--9-9-9-9-9-7--7-7-7-7-7-12--12-12-12-12-12-5--5-5-5-5-5--------------------
-9--9-9-9-9-9-7--7-7-7-7-7-12--12-12-12-12-12-5--5-5-5-5-5--------------------
-7--7-7-7-7-7-5--5-5-5-5-5-10--10-10-10-10-10-3--3-3-3-3-3--------------------
 riff 1 (x2)

------------------------------------------------------------------------------
------------------------------------------------------------------------------
-1--1-1-1-1-1-6--6-6-6-6-6-11--11-11-11-11-11-4--4-4-4-4-4--------------------
-2--2-2-2-2-2-7--7-7-7-7-7-12--12-12-12-12-12-5--5-5-5-5-5--------------------
-2--2-2-2-2-2-7--7-7-7-7-7-12--12-12-12-12-12-5--5-5-5-5-5--------------------
-0--0-0-0-0-0-5--5-5-5-5-5-10--10-10-10-10-10-3--3-3-3-3-3--------------------
 riff 2 (x1)

------------------------------------------------------------------------------
------------------------------------------------------------------------------
-1--1-1-1-1-6--6-6-6-6-6--1-----------------8---------------------------------
-2--2-2-2-2-7--7-7-7-7-7--2-----------------9---------------------------------
-2--2-2-2-2-7--7-7-7-7-7--2-----------------9---------------------------------
-0--0-0-0-0-5--5-5-5-5-5--0-----------------7---------------------------------


Important: The song above is NOT stored on the Chordie server. The original song is hosted at www.xguitar.com. Chordie works as a search engine and provides on-the-fly formatting. Chordie does not index songs against artists'/composers' will. To remove this song please click here.

This song is displayed as text-only. Transposing and tuning is only available for chordpro-songs.

Login - add to songbook

Rating click stars to rate

Layout
Accuracy

SHARE PAGE  




You need to log in to post comments