Guitar Tabs, Chords and Lyrics


I Think I Smell a Rat    White Stripes



By Robthebank - robthebank89@hotmail.com

the White Stripes  - i think i smell a rat.

Tuning - E flat.

v = vibrato
od = overdrive on/off

   od
eb|--------9---------------|--777-5-7--|--------9---------------|--777-5-2---|
Bb|--11-12---12-11-10-11v--|--777-5-7--|--11-12---12-11-10-11v--|--777-5-2---|
Gb|---x--------------------|--888-6-8--|------------------------|--888-6-3---|
Db|------------------------|--999-7-9--|------------------------|--999-7-4---|
Ab|------------------------|--999-7-9--|------------------------|--999-7-4---|
Eb|------------------------|--777-5-7--|------------------------|--777-5-2---|



									od
eb|--------8---------------|--222-5-7--|--------9---------------|--777-5-----|
Bb|--10-11---11-10-9-10v---|--222-5-7--|--11-12---12-11-10-11v--|--777-5-----|
Gb|------------------------|--333-6-8--|------------------------|--888-6--8--|
Db|------------------------|--444-7-9--|------------------------|--999-7--9--|
Ab|------------------------|--444-7-9--|------------------------|--999-7--9--|
Eb|------------------------|--222-5-7--|------------------------|--777-5--7--|
									   oh, i	


					   od		[continue]
eb|----------------|---------------------------------------------------------|
Bb|----------------|-------------------------x-xx-x-xx-x---------------------|
Gb|----------------|--7----------------------8-88-8-88-8-----------------7---|
Db|----------------|--8----------------------9-99-9-99-9-----------------8---|
Ab|----------------|--8----------------------9-99-9-99-9-----------------8---|
Eb|----------------|--6----------------------7-77-7-77-7-----------------6---|
     think i smell a rat, i think i smell a rat.         all you...it's at, i think



eb|--------------------------|-----------------------------------------------|
Bb|-------------x-xx-x-xx-x--|-----------------------------------------------|
Gb|-------------8-88-8-88-8--|-----------------------------------------------|
Db|-------------9-99-9-99-9--|-----------------------------------------------|
Ab|-------------9-99-9-99-9--|-----------------------------------------------|
Eb|-------------7-77-7-77-7--|-----------------------------------------------|
    i smell a rat.		



Important: The song above is NOT stored on the Chordie server. The original song is hosted at www.xguitar.com. Chordie works as a search engine and provides on-the-fly formatting. Chordie does not index songs against artists'/composers' will. To remove this song please click here.

This song is displayed as text-only. Transposing and tuning is only available for chordpro-songs.

Login - add to songbook

Rating click stars to rate

Layout
Accuracy

SHARE PAGE  




You need to log in to post comments