Guitar Tabs, Chords and Lyrics


Offend in Every Way   White Stripes



|---------------------------------------------------------------------------------------------------------

|---------------------------------------------------------------------------------------------------------
|---------------------------------------------------2----7--2/3-2--------4--------------------------------
|-------------5--------------3-----------5---5--5-3------7--------5-3-5--5--------------------------------
|--5-3--------5---------3----3---3---3-5-----5--------5--5---------------5--------------------------------
|------6-5-3--3---3-5-6---1--1-----6---------3-----------5---------------3--------------------------------
|---------------------------------------------------------------------------------------------------------
|---------------------------------------------------------------------------------------------------------
|------------5--------------------------------------------------------------------------------------------
|------------5------------3---------5---------------------------------------------------------------------
|-------2-3--3-3----------3---------5---------------------------------------------------------------------
|-3-5-6------3---6-5-3-1--1-1-3-5-6-3---------------------------------------------------------------------
I'm patient of this[G] plan
As humble as I [F]can
I'll wait another [G]day
Before I turn [Dm]away
But know this much is [G]true
No matter what I [Cm]do
Offend in every [F]way
I don't know what to [G]say
Chorus (1)
===========

Pretty similar to the Intro but with slight variations

|---------------------------------------------------------------------------------------------------------
|---------------------------------------------------------------------------------------------------------
|----------------------------------------------------2----7--2/3-2-------2-3----4-------------------------
|--------------5--------------3-----------5---5--5-3------7--------5-3-5-----5--5-------------------------
|--5-3---3-----5---------3----3---3---3-5-----5--------5--5---------------------5-------------------------
|------1---1-3-3---3-5-6---1--1-----6---------3-----------5---------------------3-------------------------

He changes the rythm in this part


|---------------------------------------------------------------------------------------------------------
|---------------------------------------------------------------------------------------------------------
|------------5--------------------------------------------------------------------------------------------
|------------5------------3---------5---------------------------------------------------------------------
|-------2-3--3-3---5------3---------5---------------------------------------------------------------------
|-3-5-6------3---6---3-1--1-1-3-5-6-3---------------------------------------------------------------------


Verse (2)
============
I'm coming through the [G]door
But they're expecting [F]more
Of an interesting [G]man
sometimes I think I [Dm]can
But how much can I [G]fake
I'll speak until I [Cm]brake
With every word I [F]say
Offend in every [G]way

Chorus (2)
==========

|---------------------------------------------------------------------------------------------------------
|---------------------------------------------------------------------------------------------------------
|----------------------------------------------------2----7--2/3-2-------2-3----4-------------------------
|--------------5--------------3-----------5---5--5-3------7--------5-3-5-----5--5-------------------------
|--5-3---3-----5---------3----3---3---3-5-----5--------5--5---------------------5-------------------------
|------1---1-3-3---3-5-6---1--1-----6---------3-----------5---------------------3-------------------------
|---------------------------------------------------------------------------------------------------------
|---------------------------------------------------------------------------------------------------------
|------------5--------------------------------------------------------------------------------------------
|------------5------------3---------5---------------------------------------------------------------------
|-------2-3--3-3----------3---------5---------------------------------------------------------------------
|-3-5-6------3---6-5-3-1--1-1-3-5-6-3---------------------------------------------------------------------


Verse (3)
==========
You tell me to re[G]lax
and listen to these [F]facts
That everyone's my [G]friend
And will be till the [Dm]end
But I know this much is [G]true
No matter what I [Cm]do
No matter what I [F]say
Offend in every [G]way


Outro (a little bit more picking at the end)
================================

----------------------------------------------------------------------------------------------------------
|---------------------------------------------------------------------------------------------------------
|---------------------------------------------------2----7--2/3-2--------4--------------------------------
|-------------5--------------3-----------5---5--5-3------7--------5-3-5--5--------------------------------
|--5-3--------5---------3----3---3---3-5-----5--------5--5---------------5--------------------------------
|------6-5-3--3---3-5-6---1--1-----6---------3-----------5---------------3--------------------------------
|----------------------------------------------------------------------------------------------------------
|----------------------------------------------------------------------------------------------------------
|--------------0-------------------------------------------------------------------------------------------
|------------2---2--------------3----------5---------------------------------------------------------------
|-------2-3--------3----------3---3--------5---------------------------------------------------------------
|-3-5-6--------------6-5-3-1-------1-3-5-6-3---------------------------------------------------------------



I think this tab is pretty much correct, but any suggestions, corrections and questions are welcome!
mail me to
wirrmi@yahoo.de
By the way, apologies for the lyrics, I'm German, so some of the words might be wrong
;))

Hi, some wanted me to tab out the chords, so here they are:

standard tuning

G G(barred) F Dm Dm (barred) C (barred)
e---3---3-----------1---1--5------------3------------------------------
b---3---3-----------1---3--6------------4------------------------------
g---0---4-----------2---2--7------------5------------------------------
d---0---5-----------3---0--7------------5------------------------------
a---2---5-----------3---0--5------------3------------------------------
E---3---3-----------1---0--5------------3------------------------------


Important: The song above is NOT stored on the Chordie server. The original song is hosted at www.xguitar.com. Chordie works as a search engine and provides on-the-fly formatting. Chordie does not index songs against artists'/composers' will. To remove this song please click here.

Text color:
Chord color:
Chord grids: 
Font size:    
Page size: 

Cm Dm F G
variations - click chord images

Login - add to songbook

Transpose chords

Tuning

Rating click stars to rate

Layout
Accuracy

SHARE PAGE  




You need to log in to post comments