Guitar Tabs, Chords and Lyrics


Do    White Stripes



Mx Tabs: www.mxtabs.net
Band: The White Stripes
Song: Do
Album: The White Stripes
Publisher: Third Man Records
Tabbed by: Joel (CurlyFri10@aol.com

Verse:

e-------------------------------------------------------
b-------------------------------------------------------
g----1--1----------2p1-2p1--------1-1------2p1----------  x8 then
d----2--2-------------------------2-2-----------------
a----2--2-------------------------2-2-----------------
e----0--0-------------------------0-0-----------------

e----------------------------------------------------
b----------------------------------------------------
g-----------------------0---------------------------
d-----------------0h2------------------------------
a------------0h2-----------------------------------
e----0h3-----------------------3--2--0------------

1 chorus:

e----------------------------------------------------------
b----------------------------------------------------------
g-----4--------------1---2p1----------------------------
d-----4--------------2----------------------5---5--------
a-----2--------------2----------------------5---5--------
e------------3-2-0--0----------------2-3----3---3-----

2 chorus:

e-----------------------------------------------------
b-----------------------------------------------------
g----4------------------------------------------------
d----4------------------------------------------------
a----2------------------------------------------------
e-------------3--2--0--------------------------------

Order:  verse, 1 chorus, verse, 2 chorus, verse, end on E



Important: The song above is NOT stored on the Chordie server. The original song is hosted at www.xguitar.com. Chordie works as a search engine and provides on-the-fly formatting. Chordie does not index songs against artists'/composers' will. To remove this song please click here.

This song is displayed as text-only. Transposing and tuning is only available for chordpro-songs.

Login - add to songbook

Rating click stars to rate

Layout
Accuracy

SHARE PAGE  




You need to log in to post comments