Guitar Tabs, Chords and Lyrics
Major upgrade!! After one year development the new version of Chordie is now online! Please give feedback.


Slicker Drips  The White Stripes

INTRO and BREAK 1: Played 4x
Bb5 A5 G5 X X
VERSE 1:
Yeah, they're lookin' [Bb5]at me[A5] [G5]
Nowhere to [Bb5]go[A5] [G5]
Oh, what they're [Bb5]sayin'[A5] [G5]
I just don't [Bb5]know[A5] [G5]
The floor [Bb5]below me[A5] [G5]
The ceiling a[Bb5]bove[A5] [G5]
And I'm the [Bb5]middle[A5] [G5]
With nobody to love
Nobody to love
Nobody to love
Nobody to love
Yeah,
BREAK 2:
[G5] [G5] [G5] [G5] [G5] [G5]  
 
 e|-3-2-3-2-3-2b3-------------------------------------------3-3-2-3-2b3-----------------------------
 B|-x-x-x-x-x-x-------------------------------------------------------------------------------------
 G|-----------------------3-0-3-5b6b5-----3b4-----3b4-----x---------------------5p3p0-5p3p0---------
 D|----------------5-5-5---------------3-------3-------3-----------------3-3-3---------------3-3-3--
 A|----------------5-5-5---------------3-------3-------3-----------------3-3-3---------------3-3-3--
 E|----------------3-3-3---------------5-------5-------5-----------------5-5-5---------------5-5-5--

BREAK 1
VERSE 2: Increasing tempo (Reminds you of VERSE 1, don't it?)
Well, they're lookin' at me
Nowhere to go
Oh, what they're sayin'
I just do know
Well, the floor below me
The ceiling above
And I'm the middle
With nobody to love
Nobody to love
Whoo!
Yeah!
Yeah!
Whoo!
Yeah!
Yeah!
G5 G5 G5 X G5 G5 G5 X
[G5]  
 
 -----------------------------------

| Slicker Drips |
| Words and Music by Jack White |
| Tabbed by Patrick Ferris |
 
 -----------------------------------
 -------------------------------------------------------------------------------------------------

| Tab Definitions: |
|Bb5: 688xxx |
| A5: 577xxx |
| G5: 355xxx |
| x: Heavily muted string |
| X: All strings muted and struck |
| p: Pull off note |
| b: Bend to note |
 
 -------------------------------------------------------------------------------------------------

INTRO and BREAK 1: Played 4x
Bb5 A5 G5 X X
VERSE 1:
Yeah, they're lookin' [Bb5]at me[A5] [G5]
Nowhere to [Bb5]go[A5] [G5]
Oh, what they're [Bb5]sayin'[A5] [G5]
I just don't [Bb5]know[A5] [G5]
The floor [Bb5]below me[A5] [G5]
The ceiling a[Bb5]bove[A5] [G5]
And I'm the [Bb5]middle[A5] [G5]
With nobody to love
Nobody to love
Nobody to love
Nobody to love
Yeah,
BREAK 2:
[G5] [G5] [G5] [G5] [G5] [G5]  
 
 e|-3-2-3-2-3-2b3-------------------------------------------3-3-2-3-2b3-----------------------------
 B|-x-x-x-x-x-x-------------------------------------------------------------------------------------
 G|-----------------------3-0-3-5b6b5-----3b4-----3b4-----x---------------------5p3p0-5p3p0---------
 D|----------------5-5-5---------------3-------3-------3-----------------3-3-3---------------3-3-3--
 A|----------------5-5-5---------------3-------3-------3-----------------3-3-3---------------3-3-3--
 E|----------------3-3-3---------------5-------5-------5-----------------5-5-5---------------5-5-5--

BREAK 1
VERSE 2: Increasing tempo (Reminds you of VERSE 1, don't it?)
Well, they're lookin' at me
Nowhere to go
Oh, what they're sayin'
I just do know
Well, the floor below me
The ceiling above
And I'm the middle
With nobody to love
Nobody to love
Whoo!
Yeah!
Yeah!
Whoo!
Yeah!
Yeah!
G5 G5 G5 X G5 G5 G5 X
[G5] 

Important: The song above is NOT stored on the Chordie server. The original song is hosted at www.xguitar.com. Chordie works as a search engine and provides on-the-fly formatting. Chordie does not index songs against artists'/composers' will. To remove this song please click here.

Text color:
Chord color:
Chord grids: 
Font size:    
Page size: 

A5 Bb5 G5
Rate #1 of 2 versions

Jango Player

Login - add to songbook

SHARE PAGE  




You need to log in to post comments