Guitar Tabs, Chords and Lyrics


Stop Breaking Down    White Stripes



E---------------------------------
B---------------------------------
G------------0--------------------    Part 1 main Chor
D-------2--2------2----0-----------
A--------------------------3----2--
E----------------------------------


E---------------------------------
B---------------------------------
G---------0-------------0--------
D---2--2-------2--0---3----3--2---
A----------------------------------     Part 2 chor
E---------------------------------





Important: The song above is NOT stored on the Chordie server. The original song is hosted at www.xguitar.com. Chordie works as a search engine and provides on-the-fly formatting. Chordie does not index songs against artists'/composers' will. To remove this song please click here.

This song is displayed as text-only. Transposing and tuning is only available for chordpro-songs.

Login - add to songbook

Rating click stars to rate

Layout
Accuracy

SHARE PAGE  




You need to log in to post comments