Guitar Tabs, Chords and Lyrics


Suzy Lee    White Stripes



Open E Tuning
E B E G# B E

/=slide up
\\=slide down

Basicly, you should use a slide for everything except the low power chord
stuff.  As you may be able to tell, I didn't include any indications
about
timing, so you will have to listen to the recording.  Also, there is a
second guitar.  I hope I didn't overcomplicate this nice easy song.
Believe me, I wanted to tab every single note, but thought that would be
of no real use, as the variations are quite minor and simple.


Intro:

Guitar 1 only
E:------------------12-----------10-------------------9--------------
B:------12--------12--12-----------10--------10\\--------9------------
G#----12--12------------12\\----10----10----10-------9-----9------9\\--
E:-/12------12-/12----------/10---------/10------/9----------/9------
B:-------------------------------------------------------------------
E:-------------------------------------------------------------------

Both Guitars
E:--------------------
B:--------------------
G#--------------------
E:--0--3--5--3--5--0--  X2
B:--0--3--5--3--5--0--
E:--0--3--5--3--5--0--


Verse:

Guitar 1
     

Important: The song above is NOT stored on the Chordie server. The original song is hosted at www.xguitar.com. Chordie works as a search engine and provides on-the-fly formatting. Chordie does not index songs against artists'/composers' will. To remove this song please click here.

This song is displayed as text-only. Transposing and tuning is only available for chordpro-songs.

Login - add to songbook

Rating click stars to rate

Layout
Accuracy

SHARE PAGE  




You need to log in to post comments