Chordie logo

Thunder Kiss '65    White Zombie



Band:White Zombie
          Song:Thunder Kiss
          By:Kenny Neumann

          "THUNDER KISS '65" by White Zombie

              Intro riff  (Palm mute the open 6th string throughout)
          E-|---------------------------------------------------------------------------|
          B-|---------------------------------------------------------------------------|
          G-|---------------------------------------------------------------------------|
          D-|---------------------------------------------------------------------------|
          A-|---------------------------------------------------------------------------|
          E-|-0--0--0-0--0-0--0--0-0--0-0--0--0-0--0-0--0--0-0--0-0--0--0-0--0-0--0--0-0|

                      1st time ending|     2nd time ending
          E-|------------------------|--------------------------------------------------|
          B-|------------------------|--------------------------------------------------|
          G-|------------------------|--------------------------------------------------|
          D-|------------------------|--------------------------------------------------|
          A-|----------------2---1---|-----------8-----8--2---1-------------------------|
          E-|-0-0--0--0-0--0---3---2-|-----0-0-0-6-0-0-6----3---2-----------------------|

              Main riff (the verses)    Played 4 times each verse
          E-|---------------------------------------------------------------------------|
          B-|---------------------------------------------------------------------------|
          G-|---------------------------------------------------------------------------|
          D-|---------------------------------------------------------------------------|
          A-|----------------------------------------2---1------------------------------|
          E-|-0--0--0-0--0-0--0--0-0--0-0--0--0-0--0---3---2----------------------------|

              The chorus rhythm part (played 4 times)
          E-|---------------------------------------------------------------------------|
          B-|-----8----------------------8----------------------------------------------|
          G-|-----7----------------------7----------------------------------------------|
          D-|-----6-------7--8--9--------6----------------------------------------------|
          A-|-----7-------5--6--7--------7----------7------5----------------------------|
          E-|-0-0-----0-0----------0--0-----0-0-0-0-5--0-0-3----------------------------|

              The rhythm part before the chorus
          E-|---------------------------------------------------------------------------|
          B-|---------------------------------------------------------------------------|
          G-|---------------------------------------------------------------------------|
          D-|-----5-------8--7----------------------------------------------------------|
          A-|-7---3--0----6--5-----5-------7-----5----6--5------------------------------|
          E-|-5-----------------3--3----5--5--3--3----4--3------------------------------|


          E-|---------------------------------------------------------------------------|
          B-|---------------------------------------------------------------------------|
          G-|---------------------------------------------------------------------------|
          D-|-----5-------8--7----------------------------------------------------------|
          A-|-7---3--0----6--5-----5-------7-----5----6--5--4---------3--------2--------|
          E-|-5-----------------3--3----5--5--3--3----4--3--2---------1--------0--------|

              Rhythm over the solo (played 3 times then play part 2 once)
          E-|---------------------------------------------------------------------------|
          B-|---------------------------------------------------------------------------|
          G-|---------------------------------------------------------------------------|
          D-|--------9----------------5---8---------10-----10--8------------------------|
          A-|--------7-------5--6--7--5---8----------8------8--6--9--8------------------|
          E-|-0---0------0-0-5--6--7--3---6---0---0-----0-0-------7--6------------------|
              (mute the 6th string throughout on these two parts)
              Solo rhythm part 2
          E-|---------------------------------------------------------------------------|
          B-|---------------------------------------------------------------------------|
          G-|---------------------------------------------------------------------------|
          D-|--------9----------------5---8---------10----------------------------------|
          A-|--------7-------5--6--7--5---8----------8-----------7------5---------------|
          E-|-0---0------0-0-5--6--7--3---6---0---0------0-0-0-0-5--0-0-3---------------|

              Verse right after solo (only time this rhythm is played)
          E-|---------------------------|-----------------------------------------------|
          B-|---------------------------|-----------------------------------------------|
          G-|---------------------------|-----------------------------------------------|
          D-|---------------------------|-----------------------------------------------|
          A-|-------5--------------5--7-|-------------------5-----------5--4--3---------|
          E-|-0--0--3--0--0---0-0--3--5-|-------------0--0--3---0-0-0-0-3--2--1---------|
          Play this^^part 3 times    then play this part ^^^ once (repeat twice)

              Then play the chorus rhythm once, then play this next part once

          E-|---------------------------------------------------------------------------|
          B-|---------------------------------------------------------------------------|
          G-|---------------------------------------------------------------------------|

          D-|---------------------------------------------------------------------------|
          A-|-----5------4------3-------9------8-----7-------5------3-----5-------------|
          E-|-0---3--0-0-2--0-0-1---0---7--6-6-6-5-5-5---0---3--0-0-1-0-0-3-------------|
              Then back to the main verse rhythm then the chorus again, then...
              THE ENDING
          E-|---------------------------------------------------------------------------|
          B-|---------------------------------------------------------------------------|
          G-|---------------------11-11-11-13-11-10~~-11-11-11-13-11-10~~---------------|
          D-|---------------------------------------------------------------------------|
          A-|-4--4--4--4--3--------4--4--4--4--3-------4--4--4--4--3--------------------|
          E-|-2--2--2--2--1--------2--2--2--2--1-------2--2--2--2--1--------------------|


          E-|---------------------------------------------------------------------------|
          B-|---------------------------------------------------------------------------|
          G-|-11--11-10--10---11-10-11-10-11-10-11-10-11-10-11-10--11--10---11-----10~~-|
          D-|---------------------------------------------------------------------------|
          A-|-4----4---4--3-------------------------------------------------------------|


Important: The song above is NOT stored on the Chordie server. The original song is hosted at www.xguitar.com. Chordie works as a search engine and provides on-the-fly formatting. Chordie does not index songs against artists/composers will. To remove this song please click here.

This song is displayed as text-only. Transposing and tuning is only available for chordpro-songs.

Login - add to songbook

Rating click stars to rate

Layout
Accuracy

SHARE PAGE  

You need to log in to post comments