Chordie logo

Is This Love      Whitesnake



Whitesnake - Is This Love?




INTRO
    N.H.N.H.N.H.    Bm       C                 N.H.N.H.N.H.
e|----------------------------------------------------------|
B|---------------------------------3---------------------|
G|------------0--------0-----------0-----5------------|
D|------------------4--------4------------------------|
A|---------------2--------3------------------------------|
E|----------------------------------------------------------|

    Bm       C             N.H.N.H.N.H. Bm       C              C  Bm  Am  G   G  F
e|--------------------------------------------------------------------------------------|
B|-----------------3--------------------------------5--------0--7---5---3---0--1-----|
G|--------0--------------------------------0-----------0-----3--7---5---4---0-----2--|
D|-----4--------4-----4-----------------4--------4--------4-----------------3-----3--|
A|--2--------3--------------------------2--------3--------------------------------------|
E|--------------------------------------------------------------------------------------|


VERSE
    Em9                      Bm       C
e|------------0--------------------------------------|
B|---------------3--------------------------3--------|
G|------------------0--------------0-----------0-----|
D|------------------------------4--------4--------4--|
A|--0--2---------------------2--------3--------------|
E|---------0-----------------------------------------|

    N.H.N.H. N.H.   Bm        C                    N.H.N.H.N.H. N.H.
e|-------------------------------------------------------------------|
B|--------------------------------3----------------------------|
G|----------------------0------------0-------------------------|
D|-------------------4---------4--------4-------------------|
A|------------------2---------3--------------------------------------|


Important: The song above is NOT stored on the Chordie server. The original song is hosted at www.xguitar.com. Chordie works as a search engine and provides on-the-fly formatting. Chordie does not index songs against artists/composers will. To remove this song please click here.

This song is displayed as text-only. Transposing and tuning is only available for chordpro-songs.

Rating click stars to rate

Layout
Accuracy

SHARE PAGE  



You need to log in to post comments