Guitar Tabs, Chords and Lyrics


Avondale   Yellowcard

E-----------


B-----------


G-----------

D--5-5-5----
A--5-5-5----
D--5-5-5----
PM----------
E--------------------------------------------I-------------
B--------------------------------------------I-------------
G---4444444444444444-------------------------I-------------
D---4444444444444444-5555555555555555-40~----I--5-5-5------
A---2222222222222222-5555555555555555-50~----I--5-5-5------
D--------------------5555555555555555-40~----I--5-5-5------
PM -------
E---------------------------------------------------------------
B---------------------------------------------------------------
G--11-/12-\-11-\9--\7---77/9\7---11-/12-\11--\9--\7---77\4\2----
D--x---x----x---x---x---xx-x-x---x---x----x---x---x---xx-x-x---- X2 (on the 2nd time, only
A--9-/-10-\-9--\7--\5---55/7\5---9-/-10-\-9--\7--\5---55\2\0---- play half of the bar and
D--------------------------------------------------------------- keep strumming D octave)
E-----------------------------------------------------------
B-----------------------------------------------------------
G-------777777644444444-7777777766666666-------77777--------
D--45~--xxxxxxxxxxxxxxx-xxxxxxxxxxxxxxxx--X2---xxxxx-45~----
A--55~--555555422222222-5555555544444444-------55555-55~----
D--45~-----------------------------------------------45~----
E-----------------------
B-----------------------
G--7777777722222222-----
D--xxxxxxxxxxxxxxxx-----
A--5555555500000000-----
D-----------------------
E---------------------------------------------------------------------
B-------------<7>-------<7>---------------------------<7>------<7>----
G---------------------------------------------------------------------
D--45~----------------------------<7>-------<7>-----------------------
A--55~----5-5-----5-5-5-----5-0-0-----0-0-0-----0---------------------
D--45~--------------------------------------------9-9-----9-9-9-------
Pm ---- ------ ----- ------- ------- -------
E----------------------------------------------------------
B--------------------------<7>------<7>--------------------
G--------<7>-----<7>---------------------------------------
D--------------------------------------------<7>-------<7>-
A----------------------5-5----5-5-5----5-0-0-----0-0-0-----
D--9-5-5----5-5-5----5-------------------------------------
------- -------- ------- ------- ------- -------
E--------------------------------------------------------------------------------
B--------<7>------<7>-------------------------<7>-------<7>----------------------
G--------------------------<7>-----<7>-------------------------------------------
D-----------------------------------------------------------------<7>-------<7>--
A--0--------------------------------------5-5-----5-5-5-----5-0-0-----0-0-0------
D----9-9----9-9-9----9-5-5----5-5-5-----5----------------------------------------
------ ------- ------- ------- ------- ------- ----- ------
E----------------------------------------------------------------
B--------<7>-----------------<7>------<7>------------------------
G----------------------------------------------------------------
D------------------4-5~-----------------------<7>-------<7>------
A--0---------------5-5~--5-5----5-5-5---5-0-0-----0-0-0----------
D----9-9-----9-9-9-4-5~------------------------------------------
------ ------- --- ------ ------ ------
E---------------
B---------------
G---9v~\7~------
D---------------
A---------------
D---------------
E-------------
B-------------
G-----4~------
D--/7---------
A-------------
D-------------
E--------------------------------------------------------
B--------------------------------------------------------
G--------------------------------------------------------
D-00000-00000-55555-55555-77777-77777-5555555555555555--- X2
A-00000-00000-55555-55555-77777-77777-5555555555555555---
D-00000-00000-55555-55555-77777-77777-5555555555555555---
E-----------------------------------------------------------------------
B-------------------------------------------------------------8~--7~----
G--11-11-11-11---11-11-12-11---12-12-12-12--4/7~---6/7---6/7--x---x-----
D--x--x--x--x----x--x--x--x----x--x--x--x---x/x----x-x---xx---5~--4-~---
A--9--9--9--9----9--9--10-9----10-10-10-10--2/5~---4/5---4/5------------
D-----------------------------------------------------------------------
E--------I-------------------------------------I---------
B--------I-------------------------------------I---------
G--------I-------------------77777777----------I---------
D--0-0-0-I-99999999\55555555-77777777-77777777-I-9v~\7~--
A--0-0-0-I-99999999\55555555-55555555-77777777-I---------
D--0-0-0-I-99999999\55555555----------77777777-I---------
Pm------
E----------------------------------------------------------------------------I-------
B----------------------------------------------------------------------------I-------
G---10-\-7-/-10-\-7-/-12-\-7-/-12-\-7-/-11-\-7-/-11-\-7-\-6-/-7-\-6-/-7------I---4~--
D---x----x---x----x---x----x---x----x---x----x---x----x---x---x---x---x------I-/7----
A---9--\-5-/-9--\-5-/-10-\-5-/-10-\-5-/-9--\-5-/-9--\-5-\-4-/-5-\-4-/-5------I-------
E----------------------------------------------------------------------------I-------
E-------------
B-------------
G-------------
D--5-x-5-0~---
A--5-x-5-0~---
D--5-x-5-0~---
E-------2-----2-----2---I------------------------------
B---3-----3-----3-----3-I----2---0-2---3---2---0---2---
G-----2-----2-----2-----I--2---2-----2---2---2---2-----
D-0---------------------I------------------------------ X2
A-----------------------I------------------------------
D-----------------------I------------------------------
E--------------------------------------------------------------------I-----
B--------------------------------------------------------------------I-----
G--------------------------------------------------------------------I-0~--
D-0000000000000000-555555555555555-7777777777777777-5555555555555555-I-0~--
A-0000000000000000-555555555555555-7777777777777777-5555555555555555-I-0~--
D-0000000000000000-555555555555555-7777777777777777-5555555555555555-I-0~--
----------------------------------------------------------------------------
[Bm]   [-]  [G]  [-]  [Asus2]                            
[Bm]If you're gonna rip my h[G]eart out,
could you [D]use a knife that's d[Asus2]ull and rust in co[Bm]lor. (Once I die[G])
[D]there will be no w[Asus2]ay that you can c[Bm]over, that sc[G]ar.
It's [D]hard. I [Asus2]know.
[Bm]And if I get a little [G]blood on you,
[D]finally the [Asus2]world will know you're g[Bm]uilty, (know you're wr[G]ong)
[D]of taking everyt[Asus2]hing you've gotten fr[Bm]om me
no [G]heart, its [D]hard. I k[Asus2]now.    [G]
Chorus:
[D]Mighty king of a[G]vondale
I [Asus2]just can't let this g[G]o. [D]
[D]Real life ain't no f[G]airy tale
I [Asus2]just thought you should k[G]now. [D]

Solo:
[Bm]   [-]  [G]  [-]  [D]  [-]  [Asus2]                        
[Bm]When you're finished with the s[G]urgery
I [D]really hope that you will t[Asus2]urn to me
and [Bm]tell me all about the f[G]un you had
[D]when you were cutting up, y[Asus2]ou were cutting up.  [G]

Chorus:
[D]Mighty king of a[G]vondale
I [Asus2]just can't let this g[G]o. [D]
[D]Real life ain't no f[G]airy tale
I [Asus2]just thought you should k[G]now. [D]

[D]Living like a fairy tale the
[G]mighty king of avondale i[Asus2]t all went to his head, this royalty[G].
[D]I stuck a knife into his back. I[G]nventiveness is what I lack.
[Asus2]He's always hanging up on loyal[G]ty.

Chorus:
[D]Mighty king of a[G]vondale
I [Asus2]just can't let this g[G]o. [D]
[D]Real life ain't no f[G]airy tale
I [Asus2]just thought you should k[G]now. [D]

Solo (x2):
[Bm]   [-]  [G]  [-]  [Asus2]                                                                                                                                 
----------------------------------------------------------------------------


Important: The song above is NOT stored on the Chordie server. The original song is hosted at www.xguitar.com. Chordie works as a search engine and provides on-the-fly formatting. Chordie does not index songs against artists'/composers' will. To remove this song please click here.

Text color:
Chord color:
Chord grids: 
Font size:    
Page size: 

Asus2 Bm D G
variations - click chord images

Login - add to songbook

Transpose chords

Tuning

Rating click stars to rate

Layout
Accuracy

SHARE PAGE  




You need to log in to post comments