Guitar Tabs, Chords and Lyrics


Icarus Dream Fanfare   Yngwie Malmsteen



Yngwie Malmsteen - Icarus' Dream Fanfare
from Concerto Suite
tune down 1/2 step
letostak@ix.netcom.com (Judy Letostak)

You can post this on your web, ftp, bbs whatever, without permission.
leave all the extra text in please.


---21~~~~~~~~---------------------------------14----12----------------
----------------------------------------------------------------------
----------------------------------------------------------------------
----------------------------------------------------------------------
----------------------------------------------------------------------
----------------------------------------------------------------------


11----------------------------------------------------------12--------
---13-12-10----------------------------------------------12-----------
------------12-11-9-8---------------------------------12--------------
----------------------10-9-7-----------------------14-----------------
-----------------------------10-7-8-6--6h7----------------------------
----------------------------------------------------------------------
                                          hold

-------12--16---------12--17-----16p15-----------15--16---------19~~~~
----12-------------13------------------17-----17----------------------
-13-------------14-------------------------18-------------------------
----------------------------------------------------------------------
----------------------------------------------------------------------
----------------------------------------------------------------------


-17-19-20-19-17-------------------------------------------------------
----------------20-20-19-20-22-20-19-17-16-19-17-16-17-16-------------
----------------------------------------------------------17-16-14----
----------------------------------------------------------------------
----------------------------------------------------------------------
----------------------------------------------------------------------


----------------------------------------------------------------------
----------------------------------------------------------------------
----------------------------------------------------------------------
17-16-17-16-14-13-----------------------------------------------------
------------------15-14-12--------------------------------------------
---------------------------15-14-12--11--hold-------------------------


-19p13------12--------------------------------------17hold----19hold--
----------------15-13-12----------------------------------------------
-------------------------14-13-12----------14hold---------------------
----------------------------------15-14-------------------------------
----------------------------------------------------------------------
----------------------------------------------------------------------


-20-----21----21-------16-----17-16-----------------------------------
------------------------------------18-17-15--------------------------
---------------------------------------------17-16-14-13--14p13--14hold
----------------------------------------------------------------------
----------------------------------------------------------------------
----------------------------------------------------------------------


-------------------------------------19h20p19---------17--------------
--------------12h13p12-----------------------------------20-19-17-16--
--(14)b 16----------------14~~~~~-------------------------------------
----------------------------------------------------------------------
----------------------------------------------------------------------
----------------------------------------------------------------------


---------17-19-17--------17-------------------------------------------
17-19-20----------20-19-----20-19-17-20-19-17-16-17-20-19-17----------
-------------------------------------------------------------19-17-16-
----------------------------------------------------------------------
----------------------------------------------------------------------
----------------------------------------------------------------------


----------------------------------------------------------------------
----------------------------------------------------------------------
----------------------------------------------------------------------
19-17-16----------16~~~~~~~~~~~~~~------------------------------------
---------19-18-19-------------------------------14----14--------------
----------------------------------------------------------------------


----------------------------------------------------------------------
-------------------------12-13-12-------------------------------------
-------------------11-12----------14-12-11--------11------------------
---------12-14-14---------------------------13-13----14-13-12--12-----
14-12-15--------------------------------------------------------------
----------------------------------------------------------------------


-12-13-12-------------------------------------------------------------
----------15-13-12----------------------------------------------------
-------------------14-12-------12-------------------------------------
-------------------------15-14----15-14-12--------14------------------
-------------------------------------------15-14--------15p12~~~~~----
----------------------------------------------------------------------


----------------------------------------------------------------------
----------------------------------------------------------------------
----------------------------------------------------------------------
----------------------------------------------12------14-----15-----14
12---14------------------11-12----14----15----------------------------
-----------12h13p12h13---------12----12----12-----12------12-----12---


----------------------------------------------------------------------
----------------------------------------------------------------------
----13b(14)~~~~~~~~---------------------------------------------------
----------------------------------------------------------------------
----------------------------------------------------------------------
12--------------------------------------------------------------------


-------15--18--18/21---19p18-----19---------11------------------------
---17-------------------------------------------------14---------12---
18--------------------------------------------------------------------
----------------------------------------------------------------------
----------------------------------------------------------------------
----------------------------------------------------------------------


--12------------------------------------------------------------------
---------9-----------12-----------13~~~~~~13------------12---------10-
----------------------------------------------------------------------
----------------------------------------------------------------------
----------------------------------------------------------------------
----------------------------------------------------------------------


10---------------------------------------------14-15----------17~~~~~-
--------------7--------10hold / 18-15-14-15-17------------------------
----------------------------------------------------------------------
----------------------------------------------------------------------
----------------------------------------------------------------------
----------------------------------------------------------------------


15---------------------------15----------17---------------------------
-------16-------17--------18------18---------17---16-----15-----------
----------------------------------------------------------------------
----------------------------------------------------------------------
----------------------------------------------------------------------
----------------------------------------------------------------------


----------------------------------------------------------------------
17h18-----17~~~~~~----15-----17tr15~~~~~------14~~~~~~~~--------------
----------------------------------------------------------------------
----------------------------------------------------------------------
----------------------------------------------------------------------
----------------------------------------------------------------------


----------14-15-14-12-------------------------------------------------
-12-14-15-------------15-14-11----11-12-14-15-14-12-11----------11-12-
-------------------------------12----------------------12-11-12-------
----------------------------------------------------------------------
----------------------------------------------------------------------
----------------------------------------------------------------------


------------------------------------------------14--19p14-------------
11-------------------------------------------15-----------15----------
---12-11----------------------------------16-----------------16-------
---------14-16-14-12-------------------10-----------------------16----
---------------------16-14-13----14h17-----------------------------17-
----------------------------------------------------------------------


---------------14--19~~~~~~-------------------------------------------
------------15-------------------8-------------8h10---7---------------
---------16-----------------------------------------------------------
------16--------------------------------------------------------------
14h17-----------------------------------------------------------------
----------------------------------------------------------------------


-------------------9---------10---------------------------------------
--7---h---8-------------------------7h8p7-----7-----------------------
-------------------------------------------9----9/11hold--------------
----------------------------------------------------------------------
----------------------------------------------------------------------
----------------------------------------------------------------------


----------------------------12-14--15hold-------------------15h17-----
-------------------12-14-15-------------------------------------------
----------11-12-14----------------------------------------------------
11-12-14--------------------------------------------------------------
----------------------------------------------------------------------
----------------------------------------------------------------------


14tr15----14hold~~~~~~~~~~~~~~--------15--15--15----------15-17-------
-------------------------------------------------15-17-19-------------
----------------------------------------------------------------------
----------------------------------------------------------------------
----------------------------------------------------------------------
----------------------------------------------------------------------


19~~~~~~~~----19--17--15--------------14h15p14------------14/---------
------------------------------------------------17p16h17-------17-19~~
----------------------------------------------------------------------
----------------------------------------------------------------------
----------------------------------------------------------------------
----------------------------------------------------------------------


----------------14--------14------------------------------------------
-------------15----------------17----17p15----15p14---14---12---------
----------16----------------------------------------------------------
-------16-------------------------------------------------------------
-14-17----------------------------------------------------------------
----------------------------------------------------------------------


---------------------------------------------12--12---12p10--10p9-----
-12-10---------------------------------14-15--------------------------
--------12p11--12hold---------------12--------------------------------
-----------------------------11--14-----------------------------------
----------------------------------------------------------------------
----------------------------------------------------------------------


-9--------------------------------------------------------------------
----12---12p10------10---8---7h8p7--------7---------------------------
------------------------------------9--7-----9/11hold-----------------
----------------------------------------------------------------------
----------------------------------------------------------------------
----------------------------------------------------------------------


-------7--9-10--10-9tr10~--7tr9~~~------------------------------------
-----7--------------------------------10--10--8----8--7h8p7-----------
---7--------------------------------------------------------10--------
-9--------------------------------------------------------------------
----------------------------------------------------------------------
----------------------------------------------------------------------


---7--10hold------------------------------14-15-14-12-----------------
-9------------------------------12-14-15--------------15-14-12-11-----
--------------------------11-13------------------------------------11-
----------------------12----------------------------------------------
----------------------------------------------------------------------
----------------------------------------------------------------------


----------------------------------------------------------------------
----11-12--15-14-12-------------12-14-12-11---------------------------
-12-----------------14-11-12-14-------------14--14-12-11--------------
---------------------------------------------------------14-12-11-12--
----------------------------------------------------------------------
----------------------------------------------------------------------


--------14-15-14-12--------14/21~~~~~---------------------------------
--------------------15-14---------------------------------------------
----11----------------------------------------------------------------
-14-------------------------------------------------------------------
----------------------------------------------------------------------
----------------------------------------------------------------------


--------------------------------------------------------------9hold 10
-8hold-------------------8h10--------7hold--------h8------------------
----------------------------------------------------------------------
----------------------------------------------------------------------
----------------------------------------------------------------------
----------------------------------------------------------------------


---------------------------------------------------12-14---15hold-----
8p7---7-----7-----------------------------12-14-15--------------------
----9---9p7---9/11hold-----------11-12-14-----------------------------
------------------------11-12-14--------------------------------------
----------------------------------------------------------------------
----------------------------------------------------------------------


15h17-------14hold----------14h15--15----------15-17--19~~~-----------
--------------------------------------15-17-19------------------------
----------------------------------------------------------------------
----------------------------------------------------------------------
----------------------------------------------------------------------
----------------------------------------------------------------------


19-17-15---14h15p14-------------14hold---14-14-12--10-10-9------------
--------------------17-14-15-17------------------------------12-12-10-
----------------------------------------------------------------------
----------------------------------------------------------------------
----------------------------------------------------------------------
----------------------------------------------------------------------


---------12-10--9/10---9tr10---------------------------10--9----------
8-8-7-------------------------12-10-10-8---7--7--5--------------------
------9---------------------------------------------7-----------------
----------------------------------------------------------------------
----------------------------------------------------------------------
----------------------------------------------------------------------


7tr9-------------------------9--7--6tr7-------------------------------
------10-8tr10--7------------------------8--7--5----------------------
-------------------9--7--6------------------------7p6h7h9p7p6---------
--------------------------------------------------------------9-------
----------------------------------------------------------------------
----------------------------------------------------------------------


-19-17--15~~~~-------------------------------17-15--14~~~-------------
-----------------19-17~~--15---14~~~----------------------17--15~~~---
--------------------------------------16-14---------------------------
----------------------------------------------------------------------
----------------------------------------------------------------------
----------------------------------------------------------------------


-------------------15--14--12tr14-12----------------------------------
-14-----------------------------------15--14~~~--12---11--------------
-----16~~--14--12-----------------------------------------12--11~~~---
----------------------------------------------------------------------
----------------------------------------------------------------------
----------------------------------------------------------------------


----------12-14-12----------------------------------------------------
-12-14-15----------15-14-12-11----------11-12-11----------------------
-------------------------------12-11-12----------12-11----------------
-------------------------------------------------------14-12-11-------
-----------------------------------------------------------------14-14
----------------------------------------------------------------------

                ending 2
-----------|--/21~~~~---21--14--12--|----10-14------9--14-----11tr12--
-----------|------------------------|-12--------11--------------------
-----------|------------------------|---------------------------------
-----------|------------------------|---------------------------------
-14hold----|------------------------|---------------------------------
-----------|------------------------|---------------------------------


11~~~-----------------------12hold------------------------------------
----------14hold---12hold-------------9---12~~~~~~-----12~~~~---------
----------------------------------------------------------------------
----------------------------------------------------------------------
----------------------------------------------------------------------
----------------------------------------------------------------------


-------------12------------------------10~~~~-------------------------
13~~~~----13-------12~~~~~----10~~~~--------------7-------10~~~~------
----------------------------------------------------------------------
----------------------------------------------------------------------
----------------------------------------------------------------------
----------------------------------------------------------------------


-------------------14--17~~~~-----15~~~~------------------------------
-------------15-17------------------------18~~~~---17~~~~-------------
-------14-17----------------------------------------------------------
-16-17----------------------------------------------------------------
----------------------------------------------------------------------
----------------------------------------------------------------------


----15----------17----------------------------------------------------
-18-----18~~~~------17-16b(17)----------------------------------------
----------------------------------------------------------------------
----------------------------------------------------------------------
----------------------------------------------------------------------
----------------------------------------------------------------------


----------------------------------------------------------------------
-15~~~  17b(18)-----17~~~--------15~~~----h17p15 14hold---------------
----------------------------------------------------------------------
----------------------------------------------------------------------
----------------------------------------------------------------------
----------------------------------------------------------------------


------15-17-19-17-15--------------------------------------------------
17-19----------------19-17-19-17-16-16--------------------------------
---------------------------------------17-16--------------------------
----------------------------------------------------------------------
------------------------------------------------18~~~~~~--------------
----------------------------------------------------------------------


---------------12~~~~-----16-12----------12--------12-17~~~-----------
-----------12-------------------12----12--------13--------------------
--------12-------------------------13--------14-----------------------
----------------------------------------------------------------------
----------------------------------------------------------------------
-12-12----------------------------------------------------------------


------------12--16~~~---12-20p19---19-20-17-19-20-19-17-19-19-16-16---
---------14-----------------------------------------------------------
------15--------------------------------------------------------------
----------------------------------------------------------------------
----------------------------------------------------------------------
-x-x-----------------------------------------------------------------


-17-15-14-20-19-17-------------------------17-20-19-17----------------
-------------------20-19-17----16-17-19-20-------------20-19-17-16----
----------------------------17-------------------------------------17-
----------------------------------------------------------------------
----------------------------------------------------------------------
----------------------------------------------------------------------


----------------20--19-20--17-20-15-20----20----20--------------------
---------------------------------------19----17----16-17-19-16--------
----------------------------------------------------------------------
-16-14-13~~~~---------------------------------------------------------
----------------------------------------------------------------------
----------------------------------------------------------------------


--------------------------------15----------17----------19------------
-17-19-17-16-17~~~--19-17-16-17----17-16-17----17-16-17----17-16-17---
----------------------------------------------------------------------
----------------------------------------------------------------------
----------------------------------------------------------------------
----------------------------------------------------------------------


20----------17---19----21~--------------------------------------------
---17-16-17-----------------------------------------------------------
----------------------------------------------------------------------
----------------------------------------------------------------------
----------------------------------------------------------------------
----------------------------------------------------------------------




=======================================================================
h = hammeron                    Judy Letostak
p = pulloff                     Internet letostak@ix.netcom.com (doesn't work)
/\ = slide                      Fidonet 1:202/762 (defunct)
x = ghost note                  MetalNet 282:100/2 (defunct)
t = tap (right hand)            The Music Shop BBS (619)423-4970 24hrs (closed)
~ = vibrato                     * = picked harmonic
bf = bend full                  tr = trill
rb = release bend               p.s. = pick scrape
dive = dive with bar            b = bend / step written over note
% = repeat bar                  + = natural harmonic
========================================================================
The Music Shop BBS (619)423-4970  24hrs
Tons of music files, tab, lyrics, pictures, sound files....LORD, BRE
Falcon's Eye (interplanetary).  Internet Email and USENET. Unsigned/
Indie band support, free of cost ask for more details.

the bbs and the above email doesn't work...it's so old...
but the information about the rest of the stuff is still good...
h is still a hammeron p is still a pulloff

If you've read this far and remember me, you can find the rest
of my lessons and other tabs @ http://gypsy.sytes.net


Important: The song above is NOT stored on the Chordie server. The original song is hosted at www.xguitar.com. Chordie works as a search engine and provides on-the-fly formatting. Chordie does not index songs against artists/composers will. To remove this song please click here.

This song is displayed as text-only. Transposing and tuning is only available for chordpro-songs.

Login - add to songbook

Rating click stars to rate

Layout
Accuracy

SHARE PAGE  




You need to log in to post comments