Guitar Tabs, Chords and Lyrics


Air On A Theme   Yngwie Malmsteen



         Title : "Air on a Theme"
        Artist : Yngwie Malmsteen
         Album : Facing The Animal
Transcribed by : Anders Ehrenborg


-----------------------------------------------13p12------13p12---------------
-----13-17------13-17--------------------15-17------15-15------15--13p12------
-14---------14--------14--17-16-14-16-17---------------------------------13---
------------------------------------------------------------------------------
------------------------------------------------------------------------------
------------------------------------------------------------------------------
                                                                              

-------------12----------------12---12------------------------------12-17-----
----12h13h15----------12h13h15---13----13p12h13p12-8h10-----------13----------
-13-------------13-13-------------------------------------------14------------
-----------------------------------------------------------10h14--------------
---------------------------------------------------------12-------------------
------------------------------------------------------------------------------
                                                                              

-12-----------------------------------------------------------14-15-17--------
-----13p12----16-12-----13p12---16-12-----13p12-12---14-15-17-----------------
----------14-------14-16-------------14-16------------------------------------
------------------------------------------------------------------------------
------------------------------------------------------------------------------
------------------------------------------------------------------------------
                                                                              

-15-14--15-14h15p14-12-14-12h14p12-11-11--12p11---11-12-----------------------
------------------------------------------------14----------------------------
------------------------------------------------------------------------------
------------------------------------------------------------------------------
------------------------------------------------------------------------------
------------------------------------------------------------------------------
 I`m not sure about this part                  hier                           

-12p9--------------9-10--12p9--------------9-12b13----------------------------
-----10-10-9-10-12-----------10-10-9-10-12------------------------------------
------------------------------------------------------------------------------
------------------------------------------------------------------------------
------------------------------------------------------------------------------
------------------------------------------------------------------------------
                                                  This Part Will Be Uppdated  

---------|-10p7-----------7-8-10p7------------7-8-10b12|----------------------
---------|-----8-8-7-8-10----------8-8-7-8-10----------|----------------------
---------|---------------------------------------------|----------------------
---------|---------------------------------------------|----------------------
---------|---------------------------------------------|----------------------
---------|---------------------------------------------|----------------------
 Soon!                                                   This Part Will Be    

-----------------|-20-17------------------------------------------------------
-----------------|-------17-15-13--16p12-------13\12--16p12-------13\12-12----
-----------------|-----------------------14-16--------------14-16-------------
-----------------|------------------------------------------------------------
-----------------|------------------------------------------------------------
-----------------|------------------------------------------------------------
 Uppdated Soon!                                                               

----------14-15-17---15-14--15-14h15p14\12--14-12h14p12\11-11--12p11----11-12-
-14-15-17------------------------------------------------------------14-------
------------------------------------------------------------------------------
------------------------------------------------------------------------------
------------------------------------------------------------------------------
------------------------------------------------------------------------------
                                                                              

------------------------------------------------------------------------------
------------------------------------------------------------------------------
------------------------------------------------------------------------------
------------------------------------------------------------------------------
------------------------------------------------------------------------------


Important: The song above is NOT stored on the Chordie server. The original song is hosted at www.xguitar.com. Chordie works as a search engine and provides on-the-fly formatting. Chordie does not index songs against artists/composers will. To remove this song please click here.

This song is displayed as text-only. Transposing and tuning is only available for chordpro-songs.

Login - add to songbook

Rating click stars to rate

Layout
Accuracy

SHARE PAGE  




You need to log in to post comments