Like an Angel - For April

Yngwie Malmsteen

 D5
|-|-13------------------------10----13----------------10----12----------
|-|---------------------10----------------------10----------------------
|-|---------------10----------------------10----------------------------
|-|-12------------------------------12----------------------12----------
|-|---------------------------------------------------------------------
|-|-10------------------------------------------------------------------

 12
------------10----13----------------10----|-15--------------------------
------10----------------------10----------|-----------------------------
10----------------------10----------------|-------------------12--------
------------------12----------------------|-------------12--------------
------------------------------------------|-------13--------------------
------------------------------------------|-15--------------------------

 3
15----------------------15----------------------15----------------------
------------------------------------------------------------------------
------------------12----------------------12----------------------------
------------12----------------------12----------------------12----------
------13----------------------13----------------------13----------------
15----------------------15----------------------15----------------------

 A#13
------|-15----------------------15----------------------15--------------
------|-----------------------------------------------------------------
12----|-------------------9---------------------------------------------
------|-------------10----------17----------------10----15--------------
------|-------10----------------------------10--------------------------
------|-12----------------------8-----12----------------6-----12--------

 4
------------15----------------------|-18----------------------17--------
------------------------------------|-----------------------------------
------------------------------------|-----------------------------------
------10----17----------------10----|-------------8-----10--------------
10----------------------10----------|-------8---------------------------
------------6-----12----------------|-6-----------------------6---------

 5
------------------13----------------------------------------------|-----
------------------------------------------------------------------|-----
------------------------------------------------------------2-----|-----
------8-----10----------------------8-----------------------------|-----
8-----------------------------8-----------------------3-----------|-----
------------------5-----8-----------------0-----5-----------------|-----

 6
------------------------------------------------------------------------
------------------------------------------------------------------------
------------------3-----------------------3-----------------3-----------
------0-----3-----------------0-----3-----------------3-----------------
1-----------------------1-----------------------0-----------------------
------------------------------------------------------------------------
------------------------------|-------------------3---------------------
3-----------------------3-----|-----------------------------------------
------------------3-----------|-----------------------------------------
------------3-----------------|-------------0---------------------------
------------------------------|-------1-----------------------1---------
------5-----------------------|-3-----------------------3---------------

 7
------3-----------------------3-----------------------3-----|-----------
------------------------------------------------------------|-----------
------------------------------------------------------------|-----------
0-----------------------0-----------------------0-----------|-----------
------------------1-----------------------1-----------------|-----------
------------3-----------------------3-----------------------|-4---------

8

------------------------------------------------------------------------
------------------------------------------------------------------------
------------1-----------------------1-----------------------1-----------
------2-----------------------2-----------------------2-----------------
2-----------------------2-----------------------2-----------------------
------------------4-----------------------4-----------------------------
------------------------|-----------------------------------------------
------------------------|-----------------------------------------------
------------------1-----|-------------------2---------------------------
------------2-----------|-------0-----2-----------------0-----2---------
------2-----------------|-0-----------------------0---------------------
4-----------------------|-----------------------------------------------

 9
 D5
------------------------------------------------------|--13-------------
------------------------------------------------------|-----------------
2-----------------------2-----------------------2-----|-----------------
------------------2-----------------------2-----------|--12-------------
------0-----4-----------------0-----4-----------------|-----------------
------------------------------------------------------|--10-------------

10

------5-----10----13----------------10----12----------------10----------
6-----------------------------10----------------------10----------------
------------------------10----------------------10----------------------
------------------12----------------------12----------------------------
------------------------------------------------------------------------
------------------------------------------------------------------------
13----------------10----|--15----------------------15-------------------
------------10----------|-----------------------------------------------
------10----------------|--------------------12-------------------------
12----------------------|--------------12----------------------12-------
------------------------|--------13----------------------13-------------
------------------------|--15----------------------15-------------------

 11
------15----------------------15----------------------|--15-------------
------------------------------------------------------|-----------------
12----------------------12----------------------12----|-----------------
------------------12----------------------12----------|-----------------
------------13----------------------13----------------|--------10-------
------15----------------------15----------------------|--12-------------

 12
 A#13
------------15----------------------15----------------------15----------
------------------------------------------------------------------------
------9-----------------------------------------------------------------
10----------17----------------10----15----------------10----17----------
------------------------10----------------------10----------------------
------------8-----12----------------6-----12----------------6-----------
------------------|--18----------------------17-------------------------
------------------|-----------------------------------------------------
------------------|-----------------------------------------------------
------------10----|--------------8-----10----------------8-----10-------
------10----------|--------8-----------------------8--------------------
12----------------|--6-----------------------6--------------------------

 13
13----------------------10----------------------|-----------------------
------------------------------------------------|-----------------------
------------------------------------------------|-----------------------
------------------8-----------------------7-----|-----------------------
------------8-----------------------7-----------|--------5-----8--------
5-----8-----------------0-----5-----------------|--6--------------------

 14
------------------------------------------------------------------------
------------------------------------------------------------------------
------------------------------------------------7-----------------------
8-----------------------8-----------------8-----------------------------
------------5-----8-----------------8-----------------------8-----------
------6-----------------------5-----------------------5-----------------
------------|--------------------3-----------------------3--------------
------------|-----------------------------------------------------------
------7-----|-----------------------------------------------------------
8-----------|--------------------------------------0--------------------
------------|--------------5-----------------1--------------------------
------------|--3-----6-----------------3-----------------------3--------

 15
------------3-----------------------3-----|-----------------------------
------------------------------------------|-----------------------------
------------------------------------------|--------------------1--------
------0-----------------------0-----------|--------------2--------------
1-----------------------1-----------------|--------2--------------------
------------------3-----------------------|--4--------------------------

 16
------------------------------------------------------------------------
------------------------------------------------------------------------
------------------1-----------------------1-----------------------------
------------2-----------------------2-----------------------2-----------
------2-----------------------2-----------------------2-----------------
4-----------------------4-----------------------4-----------------------
------|-----------------------------------------------------------------
------|-----------------------------------------------------------------
1-----|--------------------2-----------------------2--------------------
------|--------0-----2-----------------0-----2--------------------------
------|--0-----------------------0-----------------------0-----4--------
------|-----------------------------------------------------------------

 17
------------------------------------|-----------------------------------
------------------------------------|----------------------------3------
------2-----------------------2-----|----------------------2------------
2-----------------------2-----------|--0-------------3------------------
------------0-----4-----------------|-----------------------------------
------------------------------------|-----------------------------------

18

------------------------------------------------------------------------
------------------3-----------------------3-----------------------------
------------2-----------------------2-----------------------2-----------
0-----3-----------------0-----3-----------------0-----3-----------------
------------------------------------------------------------------------
------------------------------------------------------------------------

 D5
13------------|--------5-----10----13----------------10----12-----------
--------------|--6-----------------------------10-----------------------
--------------|--------------------------10----------------------10-----
12------------|--------------------12----------------------12-----------
--------------|---------------------------------------------------------
10------------|---------------------------------------------------------

 19
------10----13----------------10----15----|--------------------15-------
10----------------------10----------------|-----------------------------
------------------10----------------------|--------------12-------------
------------12----------------------------|--------12-------------------
------------------------------------------|--13-------------------------
------------------------------------15----|--------------------15-------

20

------------------15----------------------15----------------------------
------------------------------------------------------------------------
------------12----------------------12----------------------12----------
------12----------------------12----------------------12----------------
13----------------------13----------------------13----------------------
------------------15----------------------15----------------------------

 A#13
15----|--------------------15----------------------15-------------------
------|-----------------------------------------------------------------
------|--------------9--------------------------------------------------
------|--------10----------17----------------10----15-------------------
------|--10----------------------------10----------------------10-------
12----|--------------------8-----12----------------6-----12-------------

 21
------15----------------------18----|--------------------17-------------
------------------------------------|-----------------------------------
------------------------------------|-----------------------------------
10----17----------------10----------|--------8-----10-------------------
------------------10----------------|--8-----------------------8--------
------6-----12----------------6-----|--------------------6--------------

 22
------------13----------------------------------------------------|-----
------------------------------------------------------------------|-----
------------------------------------------------------2-----------|-----
8-----10----------------------8-----------------------------------|-----
------------------------8-----------------------3-----------1-----|-----
------------5-----8-----------------0-----5-----------------------|-----

 23
------------------------------------------------------------------------
------------------------------------------------------------3-----------
------------3-----------------------3-----------------3-----------------
0-----3-----------------0-----3-----------------3-----------------------
------------------1-----------------------0-----------------------------
------------------------------------------------------------------------
------------------------------|--------------3--------------------------
------------------3-----------|-----------------------------------------
------------3-----------------|-----------------------------------------
------3-----------------------|--------0-----------------------0--------
------------------------------|--1-----------------------1--------------
5-----------------------3-----|--------------------3--------------------

 24
3-----------------------3-----------------------3-----------|-----------
------------------------------------------------------------|-----------
------------------------------------------------------------|-----------
------------------0-----------------------0-----------------|-----------
------------1-----------------------1-----------------------|--2--------
------3-----------------------3-----------------------4-----|-----------

 25
------------------------------------------------------------------------
------------------------------------------------------------------------
------1-----------------------1-----------------------1-----------------
2-----------------------2-----------------------2-----------------------
------------------2-----------------------2-----------------------------
------------4-----------------------4-----------------------4-----------
------------------------|-----------------------------------------------
------------------------|-----------------------------------------------
------------1-----------|--------------2-----------------------2--------
------2-----------------|--0-----2-----------------0-----2--------------
2-----------------0-----|--------------------0--------------------------
------------------------|-----------------------------------------------

 26
------------------------------------------------------------------------
------------------------------------------------------------------------
------------------2-----------------------2-----------------------------
------------2-----------------------2-----------------------------------
0-----4-----------------0-----4-----------------------------------------
------------------------------------------------------------------------


Guitarra rítmica

 C
|-|--------------------------|-0----------3-------------|---------------
|-|--------------------------|-1----------5-------------|---------------
|-|----------------0---------|-0----------5-------3-----|---------------
|-|-----------0---------3----|-2------------------------|---------------
|-|------1-------------------|--------------------3-----|---------------
|-|-3------------------------|--------------------------|---------------

 1345
 A#5/AA5A#Gm
6-------------5-----1------------|-1---------------|---------------|----
1--------------------------------|-3-------3-------|-3-------------|----
3-------------------3------2-----|-3-------3-------|-3-------------|----
3--------------------------2-----|---------3-------|-5-------------|----
1-------------3-----0------------|-1-------0-------|---------------|----
---------------------------------|-----------------|-3-------------|----

6 7 8

 EE7sus4Dm
0-------------|-0---------------------|----------------|----------------
0-------------|-3-------------2-------|--3-------------|----------------
1-------------|-2---------------------|--2-------------|----------------
--------------|-2---------------------|--3-------------|----------------
--------------|-0-------------0-------|--5-------------|----------------
0-------------|-----------------------|----------------|----------------

9 10 11

 GmC
---------------------------------------|--0----------3-------------|----
---------------------------------------|--1----------5-------------|----
3----------------------------0---------|--0----------5-------3-----|----
5-----------------------0---------3----|--2------------------------|----
5------------------1-------------------|---------------------3-----|----
--------------3------------------------|---------------------------|----

 1213
 A#5/AA5A#Gm
6-------------5-----1------------|--1---------------|-------------------
1--------------------------------|--3-------3-------|--3----------------
3-------------------3------2-----|--3-------3-------|--3----------------
3--------------------------2-----|----------3-------|--5----------------
1-------------3-----0------------|--1-------0-------|-------------------
---------------------------------|------------------|--3----------------

 1415
 EE7sus4
|--0-------------|--0---------------------|----------------|------------
|--0-------------|--3-------------2-------|--3-------------|------------
|--1-------------|--2---------------------|----------------|------------
|----------------|--2---------------------|--3-------------|------------
|----------------|--0-------------0-------|--5-------------|------------
|--0-------------|------------------------|----------------|------------

16 17 18 19

 DmGmC
--------------|-----------------------------------------|--0------------
3-------------|-----------------------------------------|--1------------
2-------------|--3----------------------------0---------|--0------------
3-------------|--5-----------------------0---------3----|--2------------
5-------------|--5------------------1-------------------|---------------
--------------|----------------3------------------------|---------------

20 21

 A#5/AA5A#
3-------------|--6-------------5-----1------------|--1------------------
5-------------|--1--------------------------------|--3-------3----------
5-------3-----|--3-------------------3------------|--3-------3----------
--------------|--3--------------------------7-----|----------3----------
--------3-----|--1-------------3-----0------7-----|--1-------0----------
--------------|-----------------------------------|---------------------

 2223
 GmEE7sus4
|----------------|--0-------------|--0---------------------|------------
|--3-------------|--0-------------|--3-------------2-------|------------
|--3-------------|--1-------------|--2---------------------|------------
|--5-------------|----------------|--2---------------------|------------
|----------------|----------------|--0-------------0-------|------------
|--3-------------|--0-------------|------------------------|------------

 24252627
 Dm
------------------------------------------------------------------------
3-----------------------------------------------------------------------
2-----------------------------------------------------------------------
3-----------------------------------------------------------------------
5-----------------------------------------------------------------------
------------------------------------------------------------------------


Intro guitarra acústica

|-|----------3--6--10-15-17-18---17-15----|-15--------------------------
|-|-------3----------------------------18-|-----------------------------
|-|----3----------------------------------|-------------------15----15--
|-|-3-------------------------------------|----------------16----16-----
|-|---------------------------------------|-------------17--------------
|-|---------------------------------------|-------15-18-----------------

 167
---15------|----------14-17----------15-12---12----|-12--12-------------
15---------|----13-16-------------14------------15-|------------15-14---
-----------|-14----------------15------------------|--------------------
-----------|---------------------------------------|--------------------
-----------|---------------------------------------|--------------------
-----------|---------------------------------------|--------------------

8 9

---------------|--------------------------------------------------------
11-------------|--------------------------------------------------------
---14-12-10----|--------------------------------------------------------
------------14-|--12----------------------------------------------------
---------------|--------------------------------------------------------
---------------|--------------------------------------------------------

10

Guitarra solista (coros)

|-|--5-------5--3-----5-----|--6----------5--6--5--3-----|-----3--------
|-|-------------------------|-------------------------6--|--6-----------
|-|-------------------------|----------------------------|--------------
|-|-------------------------|----------------------------|--------------
|-|-------------------------|----------------------------|--------------
|-|-------------------------|----------------------------|--------------

1 10 11 12

3--------3-----|--6-----5-----------------5--10-|--8--10-----12---------
---6-----------|--------------6-----5-----------|-----------------------
---------------|--------------------------------|-----------------------
---------------|--------------------------------|-----------------------
---------------|--------------------------------|-----------------------
---------------|--------------------------------|-----------------------

 1314
B1½
13----|--15----------12-14-15-17-18-------------15-17-|--19------20-----
------|--------14-15-------------------15-17-18-------|-----------------
------|-----------------------------------------------|-----------------
------|-----------------------------------------------|-----------------
------|-----------------------------------------------|-----------------
------|-----------------------------------------------|-----------------

 1516
B1½ B¼
------|----------17-17---17-15-------|----------|--17------17-15--------
------|------------------------18-17-|--15------|-----------------------
------|------------------------------|----------|-----------------------
------|------------------------------|----------|-----------------------
------|------------------------------|----------|-----------------------
------|------------------------------|----------|-----------------------

17 18 19

17----|--18---------17-18-17-15----|-----15-----15-------15----|--------
------|-------------------------18-|--18-----------18----------|--------
------|----------------------------|---------------------------|--------
------|----------------------------|---------------------------|--------
------|----------------------------|---------------------------|--------
------|----------------------------|---------------------------|--------

20 21 22

B¼ B1½ B1½
18----17----------------------13-15-17----|--20-21-----22----------|----
------------18----17-15----17-------------|------------------------|----
------------------------15----------------|------------------------|----
------------------------------------------|------------------------|----
------------------------------------------|------------------------|----
------------------------------------------|------------------------|----

 2324
B1½
------21-------------------------------------|----------22----------|---
---------------------------------------------|----------------------|---
---------------------------------------------|----------------------|---
---------------------------------------------|----------------------|---
---------------------------------------------|----------------------|---
---------------------------------------------|----------------------|---

 2526
B1½ B¼
22------22------------------|-------------------------------------------
----------------------------|-------------------------------------------
----------------------------|-------------------------------------------
----------------------------|-------------------------------------------
----------------------------|-------------------------------------------
----------------------------|-------------------------------------------

 27