Now Is the Time

Yngwie Malmsteen

||-----------------------------------------------------|-----------------

||-----------------------------------------------------|-----------------
||o--6--------6--8--------8--9--------9--11--------11--|-9--------9--8---
||o-----6--6--------6--6--------6--6---------6--6------|----6--6---------
||-----------------------------------------------------|-----------------
||-----------------------------------------------------|-----------------
-----------------------------------|-------------------------------------
-----------------------------------|-------------------------------------
--------8--6--------6--8--------8--|-6--------6--8--------8--9--------9--
--6--6--------6--6--------6--6-----|----6--6--------6--6--------6--6-----
-----------------------------------|-------------------------------------
-----------------------------------|-------------------------------------
---------------|-------------------------------------------------------||
---------------|-------------------------------------------------------||
-11--------11--|-9--------9--8--------8--6--------6--8--------8-------o||
-----6--6------|----6--6--------6--6--------6--6--------6--6----------o||
---------------|-------------------------------------------------------||
---------------|-------------------------------------------------------||
|------------|-------------|------------|-------------|-----------------|
|------------|-------------|--4---------|-------------|-----------------|
|--6---------|-------------|--4---------|-------------|----2------------|
|--6---------|-------------|--4---------|-------------|----2------------|
|--4---------|-------------|--2---------|-------------|----0------------|
|------------|-------------|------------|-------------|-----------------|
|-------------|-----------|---------------|-------------|---------------|
|-------------|-----------|---------------|-------------|---------------|
|-------------|-----------|---------------|-------------|---------------|
|-------------|--4--------|---------------|-------------|---------------|
|-------------|--4--------|---------------|--7----------|---~-----------|
|-------------|--2--------|---4~-w/bar----|--5----------|---~-----------|
|------------------------------------------|-----------------------------
|------------------------------------------|-----------10-9------9-------
|--------------------------------8h9p8-----|----8-9-11------11-9---11-9--
|----------9p7----------7h9--11--------11--|-11--------------------------
|-6h7-9-11------11--11---------------------|-----------------------------
|------------------------------------------|-----------------------------

 1/2
---------------|-----------------|----------------|---------------------|
---------------|-----------------|----------------|---------------------|
-8-11-9-8------|-11bf----11~-----|--8--9bf--9~----|---------------------|
-----------11--|-----------------|----------------|-11-13b---13~--------|
---------------|-----------------|----------------|---------------------|
---------------|-----------------|----------------|---------------------|
|---------------------------------------------12h14|h16~--14~---14------|
|------------------------------------13h14h16------|--------------------|
|---------------------------13h14h16---------------|--------------------|
|-10--11--13--11---13h14h16------------------------|--------------------|
|--------------------------------------------------|--------------------|
|--------------------------------------------------|--------------------|


 1/2
|--------14---------|-------------------|-------------------------------|
|--16h17-----17~----|-14--16b---rb16~---|-13-14--14bf---14-----12-------|
|-------------------|-------------------|-------------------------------|
|-------------------|-------------------|-------------------------------|
|-------------------|-------------------|-------------------------------|
|-------------------|-------------------|-------------------------------|


 11/2
|------11-12-11-12-14-12-14-16-12-14-16-17-14-16-17-19-0-17-19-21b------|
|-14\-------------------------------------------------------------------|
|-----------------------------------------------------------------------|
|-----------------------------------------------------------------------|
|-----------------------------------------------------------------------|
|-----------------------------------------------------------------------|


fig.1
||------------------|-------------|---------------|--------------------||
||------------------|-------------|---------------|--------------------||
||o-----------------|-------------|---------------|-------------------o||
||o----------4------|--6----6-----|---2-----------|-------------------o||
||------2----2------|--3----4-----|---0------3----|--------------------||
||------0-----------|-------------|---------------|---4-----5-----7----||


fig.2 1/4
|-----------------------|-----------------|---------------|-------------|
|-----------------------|-----------------|---------------|-------------|
|-----------------------|-----------------|--------%------|------%------|
|-----------------2b----|-----------2b----|---------------|-------------|
|-----4-------2-4----4--|-------2-4----4--|---------------|-------------|
|-------0-2-4-----------|-0-2-4-----------|---------------|-------------|


Cont fig.2
Hold on tight in the heat of the night baby there can be no escape
feelings right getting hard to fight baby just how much can I take

Tell me that it's real everything you feel what am I supposed to do.
|------------|---------------------|-------------------|-----------------|
|-----2------|--2------------------|-------------------|-----------------|
|-----2------|--2--------------4---|-----------4---2---|----------2------|
|-----4------|--4-----------4--2---|-----------2---2---|-4--------2--4---|
|-----4------|--4-----------4------|---------------0---|-0--0--0-------2-|
|--0--2------|--2--2--2--2-----4---|--4--4--4----------|-----------------|


Look into my eyes touch me deep inside let me feel your love
|--------------------|-----------------------|--------------------------|
|--5--5-----4--4--4--|--2--------------------|--------------------------|
|--4--4-----4--4--4--|--2--------------------|----------2---------------|
|--4--4-----4--4--4--|--4--------------------|-----4----2---------------|
|--------2-----------|--4--------------------|-----2----0---------------|
|--------------------|--2--2--2--2--2--2--4--|--4--4--------------------|


cut through.
|----------------------|----------------|
|----------------------|-5--5--5--4-----|
|----------------------|-4--4--4--4-----|
|-2--4--2--2--2--4--2--|-4--4--4--4-----|
|-0--0--0--0--0--0--0--|-2--2--2--2-----|
|----------------------|----------------|


Chorus Fig.1

Oh now is the time feeling your heart so close to mine.

Oh I want your touch I need you so much now is the time for our love
|-----|--------------|----------------|-----------|--------|------------|
|-----|--------------|----------------|-----------|--------|------------|
|-----|--------------|----------------|-----------|--------|------------|
|-----|--------------|----------------|-----------|--2-----|------------|
|-----|--------------|----------------|-----------|--0-----|----2--4----|
|-----|--------------|----------------|-----------|--------|------------|


 1/2
|-------------|---------|---------------|--------------------------------
|-------------|---------|---------------|-12---------------9-12-------9--
|-------------|---------|---------------|----12-11-9-11-12-------11b-----
|-------------|---------|---------------|--------------------------------
|-------------|---------|---------------|--------------------------------
|-------------|---------|---------------|--------------------------------
---------------|
---------------|
--12--11--9----|
------------9--|
---------------|
---------------|


Fig.2
Drowning in the flames in the sea of desire angel with the devil's eyes
turns up the heat and we fall in the fire can't you feel the temperature rise.
Tell me that it's true you can feel it too let me be your fantasy
Baby hold me tight say that it's alright you know you can count on me.

Fig.1
chorus

Interlude
When the fire starts I can feel
|--------------------------|-------------------------|-------------------
|----------------2-----4---|----------------4-----2--|----------------2--
|----------------2-----4---|----------------4-----2--|----------------2--
|----------------2-----4---|----------------4-----2--|----------------2--
|-0--0--0--0--0-----0------|-0--0--0--0--0-----0-----|-0--0--0--0--0-----
|--------------------------|-------------------------|-------------------


you burning tonight With an open heart
----------|-----------------------|-------------------------------------|
----------|-----4--------------4--|----------------2-----4--------------|
-----6----|--6--------5-----5-----|----------------2-----4--------------|
-----6----|--------6-----6--------|----------------2-----4--------------|
-----6----|-----------------------|-0--0--0--0--0-----0-----------------|
--0-------|-----------------------|-------------------------------------|


baby won't you let me inside
|------------------------------|-------------------------|---------------
|-------------------4-----2----|----------------2--------|---------------
|-------------------4-----2----|----------------2--------|---------------
|-------------------4-----2----|----------------2--------|---------------
|-0--0--0--0--0--0-----0-------|-0--0--0--0--0-----4--4--|-5--4--5--4--5-
|------------------------------|-------------------------|---------------
---------|
---------|
---------|
---------|
--4--5---|
---------|
|----------------------------12h14h16-|-/21~---11b--rb11-9-----9--------|
|-------------------13h14h16----------|--------------------8-9----11----|
|----------13h14h16-------------------|---------------------------------|
|-16p14h16----------------------------|---------------------------------|
|-------------------------------------|---------------------------------|
|-------------------------------------|---------------------------------|
|----12-------11------------|-21bf--rb21--21--21~--\-|---------------9---
|---------------------------|------------------------|-9----------9----12bf
|-9------9\8------8---------|------------------------|-9--------9--------
|--------------------9/11~--|------------------------|-------11----------
|---------------------------|------------------------|----11-------------
|---------------------------|------------------------|-------------------
--9---------|--------------9----------------------|----------------------
-----12bf---|-rb12--9-----------------------------|----------------------
------------|----------12-----12-11-9------11~p9--|-13-11-19--13-11-19---
------------|--------------------------11---------|----------------------
------------|-------------------------------------|----------------------
------------|-------------------------------------|----------------------
-------------------------------------------------------|------------x---|
-------------------------------------------------------|-16h17-14---x---|
-14-11-13-14-13-11-16-13-14-16-14-13-18-14-16-18-16-14-|----------------|
-------------------------------------------------------|----------------|
-------------------------------------------------------|----------------|
-------------------------------------------------------|----------------|
|--21bf--21~------9-11-12-|-12h11----11p9------------9------------------|
|--------------x----------|-------12------12-12p9-----------------------|
|-------------------------|-----------------------12---12p9----11~------|
|-------------------------|---------------------------------11----------|
|-------------------------|---------------------------------------------|
|-------------------------|---------------------------------------------|
|-------------9----------12p11-12-14-11/12-16p12-16p12-t19p16p12--------|
|--------9h12---13/14-14------------------------------------------------|
|-8h9h11----------------------------------------------------------------|
|-----------------------------------------------------------------------|
|-----------------------------------------------------------------------|
|-----------------------------------------------------------------------|
|-21bf--rb21--21---21---/21--|-24--21----21--------17--21----21----21---|
|----------------------------|--------0------0------------21----19------|
|----------------------------|------------------------------------------|
|----------------------------|------------------------------------------|
|----------------------------|------------------------------------------|
|----------------------------|------------------------------------------|


 1/2
|----t21--------------------------------------16h17----16-|17-19-16-17---
|-17-----16b--rb16-------16h17h19-16-17-19-17-------19----|--------------
|------------------18~------------------------------------|--------------
|---------------------------------------------------------|--------------
|---------------------------------------------------------|--------------
|---------------------------------------------------------|--------------
-19h21p19p17--19p17-16-17-16----------------16-|-17~----17h19--19bf--rb19|
-----------------------------19-17-16-17-19----|-------------------------|
-----------------------------------------------|-------------------------|
-----------------------------------------------|-------------------------|
-----------------------------------------------|-------------------------|
-----------------------------------------------|-------------------------|


 1/2
|--17p16-----------|----------------/17-16h17-14-17-12-17-|-11-17-9-17---
|---------19--17---|-16b--rb16----------------------------|--------------
|------------------|------------18------------------------|------------16
|------------------|--------------------------------------|--------------
|------------------|--------------------------------------|--------------
|------------------|--------------------------------------|--------------


 1/2
-----------------------------------12-12h14----12-|----------------------
--14p12h14p12h14-16p12h14p12h14h16----------16----|-16b--rb16p14--17p16p14
--------------------------------------------------|----------------------
--------------------------------------------------|----------------------
--------------------------------------------------|----------------------
--------------------------------------------------|----------------------
-17--------------16p14----------14-17p14----|-----19p14-----14-17p16p14--
-----16h17p16p14-------16-16h17----------16-|-16--------16---------------
--------------------------------------------|----------------------------
--------------------------------------------|----------------------------
--------------------------------------------|----------------------------
--------------------------------------------|----------------------------
--16p14----14-------------------------|----------------------------------
--------17----17-16-17-16-14-16-14----|-14-----13p12p10------------------
-----------------------------------16-|----13-----------13p11--14p13p11--
--------------------------------------|----------------------------------
--------------------------------------|----------------------------------
--------------------------------------|----------------------------------
-----------------------------------|-16h17p16p14-----------------7-------
--------------------------12h14h16-|-------------17p16p14----------7-----
-----------------11h13h14----------|----------------------17p16------6bf-
--14p13h11h13h14-------------------|-------------------------------------
-----------------------------------|-------------------------------------
-----------------------------------|-------------------------------------
-----------|
-----------|
--rb6------|
-------9~--|
-----------|
-----------|


Chorus Fig.1

Outro Solo (over chorus)

|-------------------------12h14-|-16---14---|--17bf--rb17--16p14--16--14-
|----------------13h14h16-------|-----------|----------------------------
|-------13h14h16----------------|-----------|----------------------------
|-14h16-------------------------|-----------|----------------------------
|-------------------------------|-----------|----------------------------
|-------------------------------|-----------|----------------------------


 1/21/2
--------14---------------|---------14--------14----------|--16b---------|
--17-16----17-16-14-16b--|-rb16-------17-16-----16----x--|--------------|
-------------------------|--------------------------x----|--------------|
-------------------------|-------------------------------|--------------|
-------------------------|-------------------------------|--------------|
-------------------------|-------------------------------|--------------|
|-14--14----|-------14----------14h17p16p14----14----14------------------|
|-----------|-16-14----17-16-14-------------17----17----17p16p14---------|
|-----------|------------------------------------------------------------|
|-----------|------------------------------------------------------------|
|-----------|------------------------------------------------------------|
|-----------|------------------------------------------------------------|
|-------14---------------------14--------|-------------------------------
|-17bf------17bf---17bf--17bf------17bf--|-------------------------------
|----------------------------------------|--fade out---------------------
|----------------------------------------|-------------------------------
|----------------------------------------|-------------------------------
|----------------------------------------|-------------------------------


======================================================================
h = hammeron
p = pulloff
/\ = slide
x = ghost note
t = tap (right hand)
~ = vibrato * = picked harmonic
bf = bend full tr = trill
rb = release bend p.s. = pick scrape
dive = dive with bar b = bend / step written over note
% = repeat bar + = natural harmonic
========================================================================


variations - click chord images
Transpose chords:
Tuning:
Cool service:
View: Size:
A  A  A
Rating:
Layout:
  • Currently 0/5 Stars.
  • 1
  • 2
  • 3
  • 4
  • 5
 
Accuracy:
  • Currently 2/5 Stars.
  • 1
  • 2
  • 3
  • 4
  • 5
 
click stars to rate
Chordie recommends:
Check out JamPlay.com for online video guitar lessons
Songbook:
Login to add this song to your songbook
Support the artist
Preview/buy this song
MSN Music
Why this non-profit ad?

 
login to add comments/video/corrections