Rumble

You Am I

 12341234
    ]    ]    ]    ]    ]    ]    ]        
--7---7-----5-5-----------5---6
--7---7-----5-5---7---7---5---6
--8---8-----6-6---7---7---6---7
--9---9-----7-7---7---7---7---8
--9---9-----7-7---5---5---7---8
--7---7-----5-5-----------5---6


(x3), then;

 12341234
   ]    ]    ]    ]    ]    ]    ]    ]      
2-2-----2-2-----2-2-----0-0-0-0-
0-0-----0-0-----0-0-----0-0-0-0-
2-2-----2-2-----2-2-----1-1-1-1-
1-1-----1-1-----1-1-----0-0-0-0-
2-2-----2-2-----2-2-----2-2-2-2-
--------------------------------


(x2)

VERSE

Riff 1

 12341234
         ]    ]    ]    ]    ]    ]    ]   ]
       2-2-----2-2-----2-2-----0-0-0-0-
       0-0-----0-0-----0-0-----0-0-0-0-
       2-2-----2-2-----2-2-----1-1-1-1-
       1-1-----1-1-----1-1-----0-0-0-0-
       2-2-----2-2-----2-2-----2-2-2-2-
       --------------------------------

Got a new hair- cut.....

Riff 2

 1234
    3---3---2---2
    3---3---2---2
    4---4---3---3
    5---5---4---4
    5---5---4---4
    3---3---2---2


Riff 1 (x 5)

Riff 3 (strum chords shown)

 123412341234
3---3---2---2---7---------------3---3---2---2--
3---3---2---2---7---------------3---3---2---2--
4---4---3---3---8---------------4---4---3---3--
5---5---4---4---9---------------5---5---4---4--
5---5---4---4---9---------------5---5---4---4--
3---3---2---2---7---------------3---3---2---2--


 1234123412341234
4----------------------------7---------------------------
6----------------------------9---------------------------
4----------------------------7---------------------------
6----------------------------6---------------------------
4----------------------------6---------------------------
----------------------------------------------------------


CHORUS

Part 1

 12341234
    ]    ]    ]    ]    ]    ]    ]        
--7---7-----5-5-----------5-6-7
--7---7-----5-5---7---7---5-6-7
--8---8-----6-6---7---7---6-7-8
--9---9-----7-7---7---7---7-8-9
--9---9-----7-7---5---5---7-8-9
--7---7-----5-5-----------5-6-7
  R---A---D-I-O....


(x3)

Part 2

 1234
    ]    ]    ]                        
--7---7-----5-5
--7---7-----5-5
--8---8-----6-6
--9---9-----7-7
--9---9-----7-7
--7---7-----5-5
  R---A---D-I-O


(x1)

Part 3

1 2 3 4 1 2 3 4 1 2 3 4 1 2 3 4 (drum fill)

T T
2---------------3-------------
3---------------3-------------
2---------------0-------------
0---------------0-------------
----------------2--------------
----------------3--------------


VERSE

Riff 1 (x 5)
Riff 3 (x 1)

CHORUS

Part 1 (x7)
Part 2 (x1)
Part 3 (x1)

CODA

7-7-7---7-7-7---7-7-7---7-7-7---7--7
7-7-7---7-7-7---7-7-7---7-7-7---9--9
8-8-8---8-8-8---8-8-8---8-8-8---7--7
9-9-9---9-9-9---9-9-9---9-9-9---9--9
9-9-9---9-9-9---9-9-9---9-9-9---7--7
7-7-7---7-7-7---7-7-7---7-7-7--------


(x3)

7-7-7---7-7-7---7--10
7-7-7---7-7-7---7--10
8-8-8---8-8-8---8--11
9-9-9---9-9-9---9--12
9-9-9---9-9-9---9--12
7-7-7---7-7-7---7--10



variations - click chord images
Transpose chords:
Tuning:
Cool service:
View: Size:
A  A  A
Rating:
Layout:
  • Currently 0/5 Stars.
  • 1
  • 2
  • 3
  • 4
  • 5
 
Accuracy:
  • Currently 4/5 Stars.
  • 1
  • 2
  • 3
  • 4
  • 5
 
click stars to rate
Chordie recommends:
Learn how to play guitar at JamPlay.com
Songbook:
Login to add this song to your songbook
Support the artist
Preview/buy this song
MSN Music
Why this non-profit ad?

 
login to add comments/video/corrections