Chordie logo


Cathy's Clown    You Am I



CATHY'S CLOWN

Transcribed by David (dfhannah@hotmail.com)
Small help from Danny (danny@zip.com.au)
Even smaller help from David Lane (dlane@ihug.com.au)

dropped d tuning, capo 2nd fret.

INTRO

E-----------------------------------
B-----------7--8--10--------7--8--12
G-----------7--7--10--------7--7--12
D-0-0-0-0-0-0-0-0-0-0-0-0-0-0-0-0-0-
A-----------------------------------
D-----------------------------------

VERSE

E--2--0-0--0-0--0-0-0-----
B--3--3-3--0-0--2-2-3-2---
G--2--0-0-------2-2-2-2--- repeat
D--0--2-2--2-2--2-2-2-2---
A-----3-3--2-2--0-0-0-0---
D----------2-2------------

CHORUS
(you can let the top notes ring to fill up the sound]

E-------------------2-2-2-2-2-2-2-2-2-2-2--*--0-0-0-0-0-0-----
B-------------------3-3-3-3-3-3-3-3-3-3-3--*--0-0-0-2-2-3-2---
G-------------------2-2-2-2-2-2-2-2-2-2-2--*--0-0-0-2-2-2-2---
D--3-3-3-3-3-3-3-3--0-0-0-0-0-0-0-0-0-0-0--*--2-2-2-2-2-2-2---
A--3-3-3-3-3-3-3-3-------------------------*--2-2-2-0-0-0-0---
D--3-3-3-3-3-3-3-3-------------------------*--2-2-2-----------

end riff

E--2--0-0--0-0----------
B--3--3-3--0-0----------
G--2--0-0--------------- repeat
D--0--2-2--2-2--1-1-1-1-
A-----3-3--2-2--1-1-1-1-
D----------2-2--1-1-1-1-

              EADGBe


Important: The song above is NOT stored on the Chordie server. The original song is hosted at www.xguitar.com. Chordie works as a search engine and provides on-the-fly formatting. Chordie does not index songs against artists/composers will. To remove this song please click here.

This song is displayed as text-only. Transposing and tuning is only available for chordpro-songs.

Login - add to songbook

Rating click stars to rate

Layout
Accuracy

SHARE PAGE  




You need to log in to post comments