Guitar Tabs, Chords and Lyrics
Major upgrade!! After one year development the new version of Chordie is now online! Please give feedback.


Waste of Mind   Zebrahead

 
 ------------------------------------------------------------------------------

 


 Waste of Mind - Zebrahead


 

 
 ------------------------------------------------------------------------------

 


 


 By: Walker Walmus walkerw@evestamail.com


 


 Intro - Finger Taping Riff 1 Guitar 1 Ending 1-2


 Use light distortion & set wha half way up


 

 
 e|-------------17----------------17----------------17-----|------14-13-12------|
 B|----------------17---------------17-----------------17--|---14-14-13-12------|
 G|-14-14-13-14-------14-14-13-14-------14-14-13-14--------|14-14-14-13-12------|
 D|--------------------------------------------------------|--------------------|
 A|--------------------------------------------------------|--------------------|
 E|--------------------------------------------------------|--------------------|

 


 


 Ending 3 - Guitar 1


 

 
 e|--14-13-13-13-12-12-12-11-11-11-10-10\\------------|
 B|--14-13-13-13-12-12-12-11-11-11-10-10\\------------|
 G|--14-13-13-13-12-12-12-11-11-11-10-10\\------------|
 D|--------------------------------------------------|
 A|--------------------------------------------------|
 E|--------------------------------------------------|

 


 


 Guitar 2 with above Intro Gtr. 2 Ending 1-2 Guitar 2 w/ Ending 3


 

 
 e|---xx--x7-xxx--xx--x7--xxx---x--x7-xxx-|-----------------|-------------------|
 B|--8xx88x8-xxx--8xx88x8-xxx--8x88x8-xxx-|-----------------|-------------------|
 G|--9xx99x9-xxx--9xx99x9-xxx--9x99x9-xxx-|-12x1212-11\\(10)\\|-------------------|
 D|--9xx99x9-xxx--9xx99x9-xxx--9x99x9-xxx-|-12x1212-11\\(10)\\|-7---6---5---4---3-|
 A|----------xxx----------xxx---------xxx-|-----------------|-7---6---5---4---3-|
 E|---------------------------------------|-----------------|-5-0-4-0-3-0-2-0-1-|

 


 


 Verse 1 Guitar 2 part same Intro


 


 Verse 2 Guitar 2 part same as Intro


 


 Verse 2


 W/wha wha Guitar 1 Gtr.3 ( ) = Guitar 3 octave changer down one octave


 

 
 e|-12-x-12-x-10-x-10-x-10----|-------------12h14p12-|--------------------------|
 B|-12-x-12-x-10-x-10-x-10----|----------------------|[--x---x---x---x---x-]----|
 G|--x-x--x-x--x-x--x-x--x----|-13x13-10x10----------|[-14x-13x-12x-11x-10\\]----|
 D|-12-x-12-x-10---10---10----|----------------------|--7---6---5---4---3-------|
 A|---------------------------|----------------------|--7---6---5---4---3-------|
 E|---------------------------|----------------------|--5-0-4-0-3-0-2-0-1-------|

 


 


 Chorus


 

 
 e|-----------------|
 B|-----------------|
 G|-7-7-7-7-9-9-9-9-|
 D|-7-7-7-7-9-9-9-9-|
 A|-5-5-5-5-7-7-7-7-|
 E|-----------------|

 


 


 Verse 3 same as 2


 


 Lead Bend @ 1:58


 Guitar 1 Guitar 3


 

 
 e|-----------------------------------------------------------------|-----------|
 B|---9-6---9-6---9-6---9-6-----14-11----14-11-------16-13----13-16-|--b17--B17-|
 G|/7-----7-----7-----7-----/12-------12-------12/14-------14-------|-----------|
 D|-----------------------------------------------------------------|-----------|
 A|-----------------------------------------------------------------|-----------|
 E|-----------------------------------------------------------------|-----------|

 


 


 Guitar 2 Played with above Tril. picked


 e|-17171717171717171719171717171717171719191919191919-


 

 
 B|----------------------------------------------------
 G|----------------------------------------------------
 D|----------------------------------------------------
 A|----------------------------------------------------
 E|----------------------------------------------------

 


 


 Guitar 3 End 1-3 End 4 to chorus


 

 
 e|--------------------------------------------------|----------|---------------|
 B|-14-14-14--------13-15-13-------------------------|-17-15-14-|--13-14-13-11--|
 G|-14-14-14--14-16----------14----------14-13-13-13-|----------|---------------|
 D|-14-14-14--------------------14-14-14-------------|----------|---------------|
 A|--------------------------------------------------|----------|---------------|
 E|--------------------------------------------------|----------|---------------|

 


 


 Guitar 2


 

 
 e|-171717171717171717----------------------------------|
 B|-------------------171515151515151515151717171717717-|
 G|-----------------------------------------------------|
 D|-----------------------------------------------------|
 A|-----------------------------------------------------|
 E|-----------------------------------------------------|

 


 


 Guitar 1 Chords in reggae rhythm


 

 
 e|--5----10----7----------------------------------------------------------|
 B|--5----10----9----------------------------------------------------------|
 G|--6----11----9----------------------------------------------------------|
 D|--7----12----9----------------------------------------------------------|
 A|--7----12----7----------------------------------------------------------|
 E|--5----10----x----------------------------------------------------------|


Important: The song above is NOT stored on the Chordie server. The original song is hosted at www.xguitar.com. Chordie works as a search engine and provides on-the-fly formatting. Chordie does not index songs against artists'/composers' will. To remove this song please click here.

This song is displayed as text-only. Transposing and tuning is only available for chordpro-songs.
Rate #2 of 3 versions

Jango Player

Login - add to songbook

SHARE PAGE  




You need to log in to post comments