Guitar Tabs, Chords and Lyrics


Clairaudients (Kill Or Be Killed)   Bright Eyes


----------------------------------------------------------------------------










----------------------------------------------------------------------------


e|---0------2------2------1------0---|


B|---2------3------3------3------0---|


G|---2------4------2------2------1---|


D|---2------4------0------0------2---|


A|---0------2------0------0------2---|


E|----------2--------------------0---|


e|---------------------------------2-----|


B|------2--------3--------2----------3---|


G|--------2--------4--------2----2-------|


D|----2--------4--------2------0---------|


A|--0--------2--------0------------------|


E|---------------------------------------|


e|------1-----------------1-------1------|


B|--------3------2----------3-------3----|


G|----2------------2----2-------2--------|


D|--0----------2------0-------0----------|


A|-----------0---------------------------|


E|---------------------------------------|


e|-----------------2----|


B|---0----2----------3--|


G|---1----2------2------|


D|---2----2----0--------|


A|-----2----0-----------|


E|----------------------|




....A................D........


The imminent and the aftermath


.....Dm......A..............Dm.....Dm...


Draw another bloody bath to drain


>>


.........A.............Bm........


Like the polar icecaps centrifuge


A..........................D..........


First snowman built at the end of June


...Dm......................A........


He slicks his hair for the interview


....D.................Dm....Dm.....


his fifteen-minute fame


..........E.....A.....D..........A.....


                                                                                


e|-----------------------2----|

B|--------0-----2----------3--|

G|--------1-----2-------2-----|

D|--------2-----2-----0-------|

A|----------2-----0-----------|

E|----------------------------|


Important: The song above is NOT stored on the Chordie server. The original song is hosted at www.yourchords.com. Chordie works as a search engine and provides on-the-fly formatting. Chordie does not index songs against artists/composers will. To remove this song please click here.

This song is displayed as text-only. Transposing and tuning is only available for chordpro-songs.

Login - add to songbook

Rating click stars to rate

Layout
Accuracy

SHARE PAGE  




You need to log in to post comments